ISO-10303-21;
HEADER;
FILE_DESCRIPTION (( 'STEP AP203' ),
    '1' );
FILE_NAME ('PL-SR-70.STEP',
    '2020-12-08T08:25:47',
    ( '' ),
    ( '' ),
    'SwSTEP 2.0',
    'SolidWorks 2011',
    '' );
FILE_SCHEMA (( 'CONFIG_CONTROL_DESIGN' ));
ENDSEC;

DATA;
#1 = LINE ( 'NONE', #7, #315 ) ;
#2 = CARTESIAN_POINT ( 'NONE',  ( -2.400000000000004400, 0.0000000000000000000, -35.91991091302984500 ) ) ;
#3 = CARTESIAN_POINT ( 'NONE',  ( -1.400000000000004600, -3.098969791906208500, -36.29999999999999700 ) ) ;
#4 = DIRECTION ( 'NONE',  ( 0.0000000000000000000, 0.0000000000000000000, -1.000000000000000000 ) ) ;
#5 = DIRECTION ( 'NONE',  ( 0.0000000000000000000, 0.0000000000000000000, 1.000000000000000000 ) ) ;
#6 = DIRECTION ( 'NONE',  ( 0.0000000000000000000, 1.000000000000000000, 0.0000000000000000000 ) ) ;
#7 = CARTESIAN_POINT ( 'NONE',  ( -0.9048005574719020200, 0.8000000000000000400, -36.29999999999999700 ) ) ;
#8 = DIRECTION ( 'NONE',  ( 0.0000000000000000000, 1.000000000000000000, 0.0000000000000000000 ) ) ;
#9 = LINE ( 'NONE', #10, #328 ) ;
#10 = CARTESIAN_POINT ( 'NONE',  ( 0.9048005574718929200, 0.0000000000000000000, -36.29999999999999700 ) ) ;
#11 = DIRECTION ( 'NONE',  ( 0.0000000000000000000, 1.000000000000000000, 0.0000000000000000000 ) ) ;
#12 = DIRECTION ( 'NONE',  ( 0.0000000000000000000, 0.0000000000000000000, 1.000000000000000000 ) ) ;
#13 = CARTESIAN_POINT ( 'NONE',  ( 0.0000000000000000000, 0.0000000000000000000, 0.0000000000000000000 ) ) ;
#14 = DIRECTION ( 'NONE',  ( -0.0000000000000000000, -1.000000000000000000, -0.0000000000000000000 ) ) ;
#15 = FACE_OUTER_BOUND ( 'NONE', #35, .T. ) ;
#16 = PLANE ( 'NONE',  #321 ) ;
#17 = CARTESIAN_POINT ( 'NONE',  ( 2.399999999999995500, 0.0000000000000000000, -35.91991091302984500 ) ) ;
#18 = DIRECTION ( 'NONE',  ( 0.0000000000000000000, 1.000000000000000000, 0.0000000000000000000 ) ) ;
#19 = DIRECTION ( 'NONE',  ( 0.0000000000000000000, 0.0000000000000000000, 1.000000000000000000 ) ) ;
#20 = DIRECTION ( 'NONE',  ( -1.000000000000000000, 0.0000000000000000000, -0.0000000000000000000 ) ) ;
#21 = LINE ( 'NONE', #88, #314 ) ;
#22 = CARTESIAN_POINT ( 'NONE',  ( 2.399999999999995500, 0.8000000000000000400, -35.91991091302984500 ) ) ;
#23 = DIRECTION ( 'NONE',  ( 0.0000000000000000000, 0.0000000000000000000, 1.000000000000000000 ) ) ;
#24 = DIRECTION ( 'NONE',  ( -0.0000000000000000000, -1.000000000000000000, -0.0000000000000000000 ) ) ;
#25 = ORIENTED_EDGE ( 'NONE', *, *, #261, .F. ) ;
#26 = ORIENTED_EDGE ( 'NONE', *, *, #237, .F. ) ;
#27 = ORIENTED_EDGE ( 'NONE', *, *, #260, .F. ) ;
#28 = ORIENTED_EDGE ( 'NONE', *, *, #219, .F. ) ;
#29 = ORIENTED_EDGE ( 'NONE', *, *, #238, .F. ) ;
#30 = ORIENTED_EDGE ( 'NONE', *, *, #239, .T. ) ;
#31 = ORIENTED_EDGE ( 'NONE', *, *, #247, .F. ) ;
#32 = ORIENTED_EDGE ( 'NONE', *, *, #219, .T. ) ;
#33 = ORIENTED_EDGE ( 'NONE', *, *, #245, .T. ) ;
#34 = ORIENTED_EDGE ( 'NONE', *, *, #220, .T. ) ;
#35 = EDGE_LOOP ( 'NONE', ( #48, #56, #29, #80 ) ) ;
#36 = EDGE_LOOP ( 'NONE', ( #27, #33, #77, #64 ) ) ;
#37 = EDGE_LOOP ( 'NONE', ( #70, #82 ) ) ;
#38 = EDGE_LOOP ( 'NONE', ( #58, #65, #34, #26 ) ) ;
#39 = EDGE_LOOP ( 'NONE', ( #73, #84, #44, #50, #57, #68 ) ) ;
#40 = EDGE_LOOP ( 'NONE', ( #66, #74, #76, #67 ) ) ;
#41 = ORIENTED_EDGE ( 'NONE', *, *, #239, .F. ) ;
#42 = ORIENTED_EDGE ( 'NONE', *, *, #257, .F. ) ;
#43 = ORIENTED_EDGE ( 'NONE', *, *, #227, .F. ) ;
#44 = ORIENTED_EDGE ( 'NONE', *, *, #218, .T. ) ;
#45 = ORIENTED_EDGE ( 'NONE', *, *, #256, .F. ) ;
#46 = ORIENTED_EDGE ( 'NONE', *, *, #235, .F. ) ;
#47 = ORIENTED_EDGE ( 'NONE', *, *, #233, .F. ) ;
#48 = ORIENTED_EDGE ( 'NONE', *, *, #218, .F. ) ;
#49 = ORIENTED_EDGE ( 'NONE', *, *, #246, .T. ) ;
#50 = ORIENTED_EDGE ( 'NONE', *, *, #247, .T. ) ;
#51 = ORIENTED_EDGE ( 'NONE', *, *, #238, .T. ) ;
#52 = EDGE_LOOP ( 'NONE', ( #31, #69, #28, #79 ) ) ;
#53 = EDGE_LOOP ( 'NONE', ( #85, #62 ) ) ;
#54 = EDGE_LOOP ( 'NONE', ( #47, #25, #41, #42 ) ) ;
#55 = EDGE_LOOP ( 'NONE', ( #72, #63, #75, #78 ) ) ;
#56 = ORIENTED_EDGE ( 'NONE', *, *, #257, .T. ) ;
#57 = ORIENTED_EDGE ( 'NONE', *, *, #260, .T. ) ;
#58 = ORIENTED_EDGE ( 'NONE', *, *, #232, .F. ) ;
#59 = ORIENTED_EDGE ( 'NONE', *, *, #254, .T. ) ;
#60 = EDGE_LOOP ( 'NONE', ( #43, #81, #45, #46 ) ) ;
#61 = VERTEX_POINT ( 'NONE', #138 ) ;
#62 = ORIENTED_EDGE ( 'NONE', *, *, #232, .T. ) ;
#63 = ORIENTED_EDGE ( 'NONE', *, *, #255, .F. ) ;
#64 = ORIENTED_EDGE ( 'NONE', *, *, #234, .F. ) ;
#65 = ORIENTED_EDGE ( 'NONE', *, *, #249, .T. ) ;
#66 = ORIENTED_EDGE ( 'NONE', *, *, #242, .T. ) ;
#67 = ORIENTED_EDGE ( 'NONE', *, *, #235, .T. ) ;
#68 = ORIENTED_EDGE ( 'NONE', *, *, #242, .F. ) ;
#69 = ORIENTED_EDGE ( 'NONE', *, *, #258, .F. ) ;
#70 = ORIENTED_EDGE ( 'NONE', *, *, #252, .F. ) ;
#71 = ORIENTED_EDGE ( 'NONE', *, *, #227, .T. ) ;
#72 = ORIENTED_EDGE ( 'NONE', *, *, #249, .F. ) ;
#73 = ORIENTED_EDGE ( 'NONE', *, *, #256, .T. ) ;
#74 = ORIENTED_EDGE ( 'NONE', *, *, #234, .T. ) ;
#75 = ORIENTED_EDGE ( 'NONE', *, *, #237, .T. ) ;
#76 = ORIENTED_EDGE ( 'NONE', *, *, #246, .F. ) ;
#77 = ORIENTED_EDGE ( 'NONE', *, *, #254, .F. ) ;
#78 = ORIENTED_EDGE ( 'NONE', *, *, #252, .T. ) ;
#79 = ORIENTED_EDGE ( 'NONE', *, *, #245, .F. ) ;
#80 = ORIENTED_EDGE ( 'NONE', *, *, #258, .T. ) ;
#81 = ORIENTED_EDGE ( 'NONE', *, *, #261, .T. ) ;
#82 = ORIENTED_EDGE ( 'NONE', *, *, #220, .F. ) ;
#83 = EDGE_LOOP ( 'NONE', ( #51, #30, #71, #49, #59, #32 ) ) ;
#84 = ORIENTED_EDGE ( 'NONE', *, *, #233, .T. ) ;
#85 = ORIENTED_EDGE ( 'NONE', *, *, #255, .T. ) ;
#86 = CARTESIAN_POINT ( 'NONE',  ( 2.333333333333329000, 0.0000000000000000000, -34.92213560989013400 ) ) ;
#87 = DIRECTION ( 'NONE',  ( 1.000000000000000000, 0.0000000000000000000, 0.0000000000000000000 ) ) ;
#88 = CARTESIAN_POINT ( 'NONE',  ( -1.403200371647936400, 0.8000000000000000400, -35.83997030434327500 ) ) ;
#89 = FACE_OUTER_BOUND ( 'NONE', #36, .T. ) ;
#90 = CARTESIAN_POINT ( 'NONE',  ( 2.399999999999995500, 0.8000000000000000400, -35.91991091302984500 ) ) ;
#91 = VERTEX_POINT ( 'NONE', #108 ) ;
#92 = DIRECTION ( 'NONE',  ( -0.0000000000000000000, -1.000000000000000000, -0.0000000000000000000 ) ) ;
#93 = DIRECTION ( 'NONE',  ( 0.0000000000000000000, 0.0000000000000000000, 1.000000000000000000 ) ) ;
#94 = VERTEX_POINT ( 'NONE', #102 ) ;
#95 = VERTEX_POINT ( 'NONE', #109 ) ;
#96 = CARTESIAN_POINT ( 'NONE',  ( -1.403200371647936400, 0.8000000000000000400, -35.83997030434327500 ) ) ;
#97 = FACE_OUTER_BOUND ( 'NONE', #38, .T. ) ;
#98 = CARTESIAN_POINT ( 'NONE',  ( 0.9048005574718929200, 0.8000000000000000400, -35.79999999999999700 ) ) ;
#99 = CARTESIAN_POINT ( 'NONE',  ( -2.333333333333338400, 0.8000000000000000400, -34.92213560989013400 ) ) ;
#100 = DIRECTION ( 'NONE',  ( -0.0000000000000000000, 1.000000000000000000, -0.0000000000000000000 ) ) ;
#101 = DIRECTION ( 'NONE',  ( 0.0000000000000000000, 0.0000000000000000000, -1.000000000000000000 ) ) ;
#102 = CARTESIAN_POINT ( 'NONE',  ( 0.0000000000000000000, 0.0000000000000000000, 17.50000000000000400 ) ) ;
#103 = CARTESIAN_POINT ( 'NONE',  ( -1.403200371647936400, 0.0000000000000000000, -35.83997030434327500 ) ) ;
#104 = VERTEX_POINT ( 'NONE', #125 ) ;
#105 = CARTESIAN_POINT ( 'NONE',  ( 2.143131898507868600E-015, 0.8000000000000000400, -17.50000000000000400 ) ) ;
#106 = CARTESIAN_POINT ( 'NONE',  ( 0.9048005574718931400, 0.8000000000000000400, -36.29999999999999700 ) ) ;
#107 = VERTEX_POINT ( 'NONE', #99 ) ;
#108 = CARTESIAN_POINT ( 'NONE',  ( 1.403200371647927300, 0.0000000000000000000, -35.83997030434327500 ) ) ;
#109 = CARTESIAN_POINT ( 'NONE',  ( 0.0000000000000000000, 0.8000000000000000400, 17.50000000000000400 ) ) ;
#110 = CYLINDRICAL_SURFACE ( 'NONE', #288, 17.50000000000000400 ) ;
#111 = CARTESIAN_POINT ( 'NONE',  ( 0.0000000000000000000, 0.0000000000000000000, 0.0000000000000000000 ) ) ;
#112 = DIRECTION ( 'NONE',  ( -0.0000000000000000000, 1.000000000000000000, -0.0000000000000000000 ) ) ;
#113 = VERTEX_POINT ( 'NONE', #127 ) ;
#114 = VERTEX_POINT ( 'NONE', #136 ) ;
#115 = CARTESIAN_POINT ( 'NONE',  ( 2.143131898507868600E-015, 0.0000000000000000000, -17.50000000000000400 ) ) ;
#116 = VERTEX_POINT ( 'NONE', #105 ) ;
#117 = CARTESIAN_POINT ( 'NONE',  ( 1.403200371647927300, 0.8000000000000000400, -35.83997030434327500 ) ) ;
#118 = CYLINDRICAL_SURFACE ( 'NONE', #281, 17.50000000000000400 ) ;
#119 = VERTEX_POINT ( 'NONE', #115 ) ;
#120 = DIRECTION ( 'NONE',  ( 0.0000000000000000000, 0.0000000000000000000, 1.000000000000000000 ) ) ;
#121 = DIRECTION ( 'NONE',  ( 0.0000000000000000000, 0.0000000000000000000, 1.000000000000000000 ) ) ;
#122 = VERTEX_POINT ( 'NONE', #133 ) ;
#123 = VERTEX_POINT ( 'NONE', #103 ) ;
#124 = VERTEX_POINT ( 'NONE', #106 ) ;
#125 = CARTESIAN_POINT ( 'NONE',  ( -0.9048005574719020200, 0.8000000000000000400, -36.29999999999999700 ) ) ;
#126 = VERTEX_POINT ( 'NONE', #96 ) ;
#127 = CARTESIAN_POINT ( 'NONE',  ( 2.333333333333329000, 0.8000000000000000400, -34.92213560989013400 ) ) ;
#128 = DIRECTION ( 'NONE',  ( 0.0000000000000000000, 1.000000000000000000, 0.0000000000000000000 ) ) ;
#129 = DIRECTION ( 'NONE',  ( 0.0000000000000000000, 0.0000000000000000000, 1.000000000000000000 ) ) ;
#130 = VERTEX_POINT ( 'NONE', #86 ) ;
#131 = LINE ( 'NONE', #134, #276 ) ;
#132 = CARTESIAN_POINT ( 'NONE',  ( 0.0000000000000000000, 0.0000000000000000000, 0.0000000000000000000 ) ) ;
#133 = CARTESIAN_POINT ( 'NONE',  ( -0.9048005574719020200, 0.0000000000000000000, -36.29999999999999700 ) ) ;
#134 = CARTESIAN_POINT ( 'NONE',  ( -1.400000000000004600, 0.0000000000000000000, -36.29999999999999700 ) ) ;
#135 = VERTEX_POINT ( 'NONE', #117 ) ;
#136 = CARTESIAN_POINT ( 'NONE',  ( -2.333333333333338400, 0.0000000000000000000, -34.92213560989013400 ) ) ;
#137 = DIRECTION ( 'NONE',  ( 0.0000000000000000000, 1.000000000000000000, 0.0000000000000000000 ) ) ;
#138 = CARTESIAN_POINT ( 'NONE',  ( 0.9048005574718931400, 0.0000000000000000000, -36.29999999999999700 ) ) ;
#139 = CYLINDRICAL_SURFACE ( 'NONE', #273, 1.000000000000000900 ) ;
#140 = CARTESIAN_POINT ( 'NONE',  ( 0.0000000000000000000, 0.8000000000000000400, 0.0000000000000000000 ) ) ;
#141 = FACE_OUTER_BOUND ( 'NONE', #55, .T. ) ;
#142 = CARTESIAN_POINT ( 'NONE',  ( 0.0000000000000000000, 0.0000000000000000000, 0.0000000000000000000 ) ) ;
#143 = CARTESIAN_POINT ( 'NONE',  ( -0.9048005574719020200, 0.0000000000000000000, -35.79999999999999700 ) ) ;
#144 = LINE ( 'NONE', #151, #289 ) ;
#145 = DIRECTION ( 'NONE',  ( -0.0000000000000000000, -1.000000000000000000, -0.0000000000000000000 ) ) ;
#146 = CARTESIAN_POINT ( 'NONE',  ( -0.9048005574719020200, 0.8000000000000000400, -35.79999999999999700 ) ) ;
#147 = CARTESIAN_POINT ( 'NONE',  ( -2.400000000000004400, 0.8000000000000000400, -35.91991091302984500 ) ) ;
#148 = DIRECTION ( 'NONE',  ( -0.0000000000000000000, -1.000000000000000000, -0.0000000000000000000 ) ) ;
#149 = DIRECTION ( 'NONE',  ( 0.0000000000000000000, 1.000000000000000000, 0.0000000000000000000 ) ) ;
#150 = DIRECTION ( 'NONE',  ( 8.673617379884027600E-016, 0.0000000000000000000, 1.000000000000000000 ) ) ;
#151 = CARTESIAN_POINT ( 'NONE',  ( 2.333333333333329000, 0.8000000000000000400, -34.92213560989013400 ) ) ;
#152 = DIRECTION ( 'NONE',  ( 0.0000000000000000000, 1.000000000000000000, 0.0000000000000000000 ) ) ;
#153 = LINE ( 'NONE', #167, #298 ) ;
#154 = DIRECTION ( 'NONE',  ( 0.0000000000000000000, 0.0000000000000000000, 1.000000000000000000 ) ) ;
#155 = DIRECTION ( 'NONE',  ( 0.0000000000000000000, 1.000000000000000000, 0.0000000000000000000 ) ) ;
#156 = DIRECTION ( 'NONE',  ( 0.0000000000000000000, -0.0000000000000000000, 1.000000000000000000 ) ) ;
#157 = DIRECTION ( 'NONE',  ( -1.000000000000000000, -0.0000000000000000000, -0.0000000000000000000 ) ) ;
#158 = DIRECTION ( 'NONE',  ( -0.0000000000000000000, -1.000000000000000000, -0.0000000000000000000 ) ) ;
#159 = CARTESIAN_POINT ( 'NONE',  ( 0.0000000000000000000, 0.0000000000000000000, 17.50000000000000400 ) ) ;
#160 = LINE ( 'NONE', #159, #297 ) ;
#161 = DIRECTION ( 'NONE',  ( -0.0000000000000000000, -1.000000000000000000, -0.0000000000000000000 ) ) ;
#162 = DIRECTION ( 'NONE',  ( 0.0000000000000000000, 0.0000000000000000000, 1.000000000000000000 ) ) ;
#163 = FACE_OUTER_BOUND ( 'NONE', #40, .T. ) ;
#164 = DIRECTION ( 'NONE',  ( -0.0000000000000000000, 1.000000000000000000, -0.0000000000000000000 ) ) ;
#165 = CARTESIAN_POINT ( 'NONE',  ( 0.9048005574718929200, 0.8000000000000000400, -35.79999999999999700 ) ) ;
#166 = DIRECTION ( 'NONE',  ( 0.0000000000000000000, 1.000000000000000000, 0.0000000000000000000 ) ) ;
#167 = CARTESIAN_POINT ( 'NONE',  ( -1.400000000000004600, 0.8000000000000000400, -36.29999999999999700 ) ) ;
#168 = DIRECTION ( 'NONE',  ( 0.0000000000000000000, 1.000000000000000000, 0.0000000000000000000 ) ) ;
#169 = CARTESIAN_POINT ( 'NONE',  ( 0.0000000000000000000, 0.0000000000000000000, 0.0000000000000000000 ) ) ;
#170 = DIRECTION ( 'NONE',  ( 0.0000000000000000000, 0.0000000000000000000, 1.000000000000000000 ) ) ;
#171 = FACE_OUTER_BOUND ( 'NONE', #39, .T. ) ;
#172 = FACE_OUTER_BOUND ( 'NONE', #52, .T. ) ;
#173 = FACE_BOUND ( 'NONE', #53, .T. ) ;
#174 = CYLINDRICAL_SURFACE ( 'NONE', #283, 35.00000000000000700 ) ;
#175 = CARTESIAN_POINT ( 'NONE',  ( 0.0000000000000000000, 0.8000000000000000400, 0.0000000000000000000 ) ) ;
#176 = CYLINDRICAL_SURFACE ( 'NONE', #280, 0.5000000000000004400 ) ;
#177 = CARTESIAN_POINT ( 'NONE',  ( 0.0000000000000000000, 0.0000000000000000000, 0.0000000000000000000 ) ) ;
#178 = PLANE ( 'NONE',  #287 ) ;
#179 = LINE ( 'NONE', #180, #295 ) ;
#180 = CARTESIAN_POINT ( 'NONE',  ( -2.333333333333338400, 0.8000000000000000400, -34.92213560989013400 ) ) ;
#181 = DIRECTION ( 'NONE',  ( -0.0000000000000000000, -1.000000000000000000, -0.0000000000000000000 ) ) ;
#182 = DIRECTION ( 'NONE',  ( 0.0000000000000000000, 0.0000000000000000000, -1.000000000000000000 ) ) ;
#183 = DIRECTION ( 'NONE',  ( 0.0000000000000000000, 0.0000000000000000000, 1.000000000000000000 ) ) ;
#184 = DIRECTION ( 'NONE',  ( 0.0000000000000000000, 0.0000000000000000000, -1.000000000000000000 ) ) ;
#185 = DIRECTION ( 'NONE',  ( 0.0000000000000000000, 1.000000000000000000, 0.0000000000000000000 ) ) ;
#186 = DIRECTION ( 'NONE',  ( 0.0000000000000000000, 0.0000000000000000000, 1.000000000000000000 ) ) ;
#187 = FACE_OUTER_BOUND ( 'NONE', #54, .T. ) ;
#188 = DIRECTION ( 'NONE',  ( 0.0000000000000000000, 0.0000000000000000000, -1.000000000000000000 ) ) ;
#189 = CARTESIAN_POINT ( 'NONE',  ( 0.9048005574718929200, 0.0000000000000000000, -35.79999999999999700 ) ) ;
#190 = CYLINDRICAL_SURFACE ( 'NONE', #299, 0.5000000000000004400 ) ;
#191 = PLANE ( 'NONE',  #312 ) ;
#192 = FACE_OUTER_BOUND ( 'NONE', #60, .T. ) ;
#193 = FACE_OUTER_BOUND ( 'NONE', #83, .T. ) ;
#194 = CARTESIAN_POINT ( 'NONE',  ( 2.143131898507868600E-015, 0.0000000000000000000, -17.50000000000000400 ) ) ;
#195 = CYLINDRICAL_SURFACE ( 'NONE', #325, 1.000000000000000900 ) ;
#196 = CARTESIAN_POINT ( 'NONE',  ( 0.0000000000000000000, 0.8000000000000000400, 0.0000000000000000000 ) ) ;
#197 = DIRECTION ( 'NONE',  ( 0.0000000000000000000, 1.000000000000000000, 0.0000000000000000000 ) ) ;
#198 = DIRECTION ( 'NONE',  ( -0.0000000000000000000, -1.000000000000000000, -0.0000000000000000000 ) ) ;
#199 = CARTESIAN_POINT ( 'NONE',  ( 0.0000000000000000000, 0.8000000000000000400, 0.0000000000000000000 ) ) ;
#200 = LINE ( 'NONE', #216, #296 ) ;
#201 = DIRECTION ( 'NONE',  ( -0.0000000000000000000, 1.000000000000000000, -0.0000000000000000000 ) ) ;
#202 = CARTESIAN_POINT ( 'NONE',  ( -2.400000000000004400, 0.8000000000000000400, -35.91991091302984500 ) ) ;
#203 = DIRECTION ( 'NONE',  ( -0.0000000000000000000, -1.000000000000000000, -0.0000000000000000000 ) ) ;
#204 = DIRECTION ( 'NONE',  ( -0.0000000000000000000, -1.000000000000000000, -0.0000000000000000000 ) ) ;
#205 = DIRECTION ( 'NONE',  ( 0.0000000000000000000, 0.0000000000000000000, 1.000000000000000000 ) ) ;
#206 = CARTESIAN_POINT ( 'NONE',  ( -0.9048005574719020200, 0.8000000000000000400, -35.79999999999999700 ) ) ;
#207 = DIRECTION ( 'NONE',  ( 0.0000000000000000000, 0.0000000000000000000, 1.000000000000000000 ) ) ;
#208 = DIRECTION ( 'NONE',  ( 0.0000000000000000000, 1.000000000000000000, 0.0000000000000000000 ) ) ;
#209 = DIRECTION ( 'NONE',  ( 0.0000000000000000000, 0.0000000000000000000, -1.000000000000000000 ) ) ;
#210 = LINE ( 'NONE', #194, #284 ) ;
#211 = DIRECTION ( 'NONE',  ( 0.0000000000000000000, 1.000000000000000000, 0.0000000000000000000 ) ) ;
#212 = FACE_BOUND ( 'NONE', #37, .T. ) ;
#213 = DIRECTION ( 'NONE',  ( 0.0000000000000000000, -0.0000000000000000000, 1.000000000000000000 ) ) ;
#214 = DIRECTION ( 'NONE',  ( -0.0000000000000000000, -1.000000000000000000, -0.0000000000000000000 ) ) ;
#215 = CARTESIAN_POINT ( 'NONE',  ( 0.0000000000000000000, 0.8000000000000000400, 0.0000000000000000000 ) ) ;
#216 = CARTESIAN_POINT ( 'NONE',  ( 1.403200371647927300, 0.8000000000000000400, -35.83997030434327500 ) ) ;
#217 = ADVANCED_FACE ( 'NONE', ( #97 ), #118, .F. ) ;
#218 = EDGE_CURVE ( 'NONE', #122, #61, #131, .T. ) ;
#219 = EDGE_CURVE ( 'NONE', #135, #124, #269, .T. ) ;
#220 = EDGE_CURVE ( 'NONE', #116, #95, #285, .T. ) ;
#221 = ADVANCED_FACE ( 'NONE', ( #141 ), #110, .F. ) ;
#222 = ADVANCED_FACE ( 'NONE', ( #89 ), #139, .F. ) ;
#223 = CC_DESIGN_PERSON_AND_ORGANIZATION_ASSIGNMENT ( #365, #387, ( #263 ) ) ;
#224 = PRODUCT_DEFINITION ( 'UNKNOWN', '', #302, #336 ) ;
#225 = ADVANCED_FACE ( 'NONE', ( #173, #171 ), #178, .F. ) ;
#226 = APPROVAL ( #371, 'UNSPECIFIED' ) ;
#227 = EDGE_CURVE ( 'NONE', #126, #107, #290, .T. ) ;
#228 = CC_DESIGN_PERSON_AND_ORGANIZATION_ASSIGNMENT ( #377, #350, ( #224 ) ) ;
#229 = CC_DESIGN_PERSON_AND_ORGANIZATION_ASSIGNMENT ( #360, #364, ( #302 ) ) ;
#230 = CC_DESIGN_PERSON_AND_ORGANIZATION_ASSIGNMENT ( #342, #352, ( #302 ) ) ;
#231 = ADVANCED_FACE ( 'NONE', ( #163 ), #174, .T. ) ;
#232 = EDGE_CURVE ( 'NONE', #119, #94, #294, .T. ) ;
#233 = EDGE_CURVE ( 'NONE', #123, #122, #277, .T. ) ;
#234 = EDGE_CURVE ( 'NONE', #130, #113, #144, .T. ) ;
#235 = EDGE_CURVE ( 'NONE', #107, #114, #179, .T. ) ;
#236 = CC_DESIGN_PERSON_AND_ORGANIZATION_ASSIGNMENT ( #351, #356, ( #320 ) ) ;
#237 = EDGE_CURVE ( 'NONE', #94, #95, #160, .T. ) ;
#238 = EDGE_CURVE ( 'NONE', #124, #104, #153, .T. ) ;
#239 = EDGE_CURVE ( 'NONE', #104, #126, #278, .T. ) ;
#240 = CC_DESIGN_DATE_AND_TIME_ASSIGNMENT ( #345, #347, ( #320 ) ) ;
#241 = CC_DESIGN_DATE_AND_TIME_ASSIGNMENT ( #370, #343, ( #224 ) ) ;
#242 = EDGE_CURVE ( 'NONE', #114, #130, #291, .T. ) ;
#243 = ADVANCED_FACE ( 'NONE', ( #172 ), #176, .T. ) ;
#244 = APPROVAL ( #339, 'UNSPECIFIED' ) ;
#245 = EDGE_CURVE ( 'NONE', #91, #135, #200, .T. ) ;
#246 = EDGE_CURVE ( 'NONE', #107, #113, #282, .T. ) ;
#247 = EDGE_CURVE ( 'NONE', #61, #91, #293, .T. ) ;
#248 = ADVANCED_FACE ( 'NONE', ( #187 ), #190, .T. ) ;
#249 = EDGE_CURVE ( 'NONE', #119, #116, #210, .T. ) ;
#250 = PRODUCT_RELATED_PRODUCT_CATEGORY ( 'detail', '', ( #263 ) ) ;
#251 = ADVANCED_FACE ( 'NONE', ( #212, #193 ), #191, .T. ) ;
#252 = EDGE_CURVE ( 'NONE', #95, #116, #306, .T. ) ;
#253 = ADVANCED_FACE ( 'NONE', ( #192 ), #195, .F. ) ;
#254 = EDGE_CURVE ( 'NONE', #113, #135, #310, .T. ) ;
#255 = EDGE_CURVE ( 'NONE', #94, #119, #307, .T. ) ;
#256 = EDGE_CURVE ( 'NONE', #114, #123, #318, .T. ) ;
#257 = EDGE_CURVE ( 'NONE', #122, #104, #1, .T. ) ;
#258 = EDGE_CURVE ( 'NONE', #124, #61, #9, .T. ) ;
#259 = APPROVAL ( #348, 'UNSPECIFIED' ) ;
#260 = EDGE_CURVE ( 'NONE', #91, #130, #330, .T. ) ;
#261 = EDGE_CURVE ( 'NONE', #126, #123, #21, .T. ) ;
#262 = ADVANCED_FACE ( 'NONE', ( #15 ), #16, .T. ) ;
#263 = PRODUCT ( 'PL-SR-70', 'PL-SR-70', '', ( #376 ) ) ;
#264 = MANIFOLD_SOLID_BREP ( 'Cut-Extrude1', #286 ) ;
#265 = ADVANCED_BREP_SHAPE_REPRESENTATION ( 'PL-SR-70', ( #264, #326 ), #313 ) ;
#266 = PERSON ( 'UNSPECIFIED', 'UNSPECIFIED', 'UNSPECIFIED', ('UNSPECIFIED'), ('UNSPECIFIED'), ('UNSPECIFIED') ) ;
#267 = AXIS2_PLACEMENT_3D ( 'NONE', #196, #211, #186 ) ;
#268 = AXIS2_PLACEMENT_3D ( 'NONE', #98, #137, #120 ) ;
#269 = CIRCLE ( 'NONE', #268, 0.5000000000000004400 ) ;
#270 = AXIS2_PLACEMENT_3D ( 'NONE', #189, #203, #205 ) ;
#271 = AXIS2_PLACEMENT_3D ( 'NONE', #140, #128, #129 ) ;
#272 = AXIS2_PLACEMENT_3D ( 'NONE', #147, #148, #183 ) ;
#273 = AXIS2_PLACEMENT_3D ( 'NONE', #90, #92, #101 ) ;
#274 = AXIS2_PLACEMENT_3D ( 'NONE', #142, #149, #154 ) ;
#275 = AXIS2_PLACEMENT_3D ( 'NONE', #143, #158, #150 ) ;
#276 = VECTOR ( 'NONE', #87, 1000.000000000000000 ) ;
#277 = CIRCLE ( 'NONE', #275, 0.5000000000000004400 ) ;
#278 = CIRCLE ( 'NONE', #279, 0.5000000000000004400 ) ;
#279 = AXIS2_PLACEMENT_3D ( 'NONE', #146, #166, #162 ) ;
#280 = AXIS2_PLACEMENT_3D ( 'NONE', #165, #181, #182 ) ;
#281 = AXIS2_PLACEMENT_3D ( 'NONE', #132, #100, #93 ) ;
#282 = CIRCLE ( 'NONE', #267, 35.00000000000000700 ) ;
#283 = AXIS2_PLACEMENT_3D ( 'NONE', #175, #161, #184 ) ;
#284 = VECTOR ( 'NONE', #201, 1000.000000000000000 ) ;
#285 = CIRCLE ( 'NONE', #271, 17.50000000000000400 ) ;
#286 = CLOSED_SHELL ( 'NONE', ( #217, #231, #251, #225, #262, #222, #253, #248, #243, #221 ) ) ;
#287 = AXIS2_PLACEMENT_3D ( 'NONE', #169, #155, #156 ) ;
#288 = AXIS2_PLACEMENT_3D ( 'NONE', #111, #112, #121 ) ;
#289 = VECTOR ( 'NONE', #152, 1000.000000000000000 ) ;
#290 = CIRCLE ( 'NONE', #272, 1.000000000000000900 ) ;
#291 = CIRCLE ( 'NONE', #292, 35.00000000000000700 ) ;
#292 = AXIS2_PLACEMENT_3D ( 'NONE', #177, #168, #170 ) ;
#293 = CIRCLE ( 'NONE', #270, 0.5000000000000004400 ) ;
#294 = CIRCLE ( 'NONE', #274, 17.50000000000000400 ) ;
#295 = VECTOR ( 'NONE', #145, 1000.000000000000000 ) ;
#296 = VECTOR ( 'NONE', #208, 1000.000000000000000 ) ;
#297 = VECTOR ( 'NONE', #164, 1000.000000000000000 ) ;
#298 = VECTOR ( 'NONE', #157, 1000.000000000000000 ) ;
#299 = AXIS2_PLACEMENT_3D ( 'NONE', #206, #198, #188 ) ;
#300 = LOCAL_TIME ( 16, 25, 47.00000000000000000, #379 ) ;
#301 = ORGANIZATION ( 'UNSPECIFIED', 'UNSPECIFIED', '' ) ;
#302 = PRODUCT_DEFINITION_FORMATION_WITH_SPECIFIED_SOURCE ( 'ANY', '', #263, .NOT_KNOWN. ) ;
#303 = LOCAL_TIME ( 16, 25, 47.00000000000000000, #349 ) ;
#304 = CC_DESIGN_APPROVAL ( #244, ( #320 ) ) ;
#305 = CC_DESIGN_SECURITY_CLASSIFICATION ( #320, ( #302 ) ) ;
#306 = CIRCLE ( 'NONE', #317, 17.50000000000000400 ) ;
#307 = CIRCLE ( 'NONE', #332, 17.50000000000000400 ) ;
#308 = CC_DESIGN_APPROVAL ( #259, ( #302 ) ) ;
#309 = LOCAL_TIME ( 16, 25, 47.00000000000000000, #355 ) ;
#310 = CIRCLE ( 'NONE', #323, 1.000000000000000900 ) ;
#311 = CC_DESIGN_APPROVAL ( #226, ( #224 ) ) ;
#312 = AXIS2_PLACEMENT_3D ( 'NONE', #199, #197, #213 ) ;
#313 =( GEOMETRIC_REPRESENTATION_CONTEXT ( 3 ) GLOBAL_UNCERTAINTY_ASSIGNED_CONTEXT ( ( #337 ) ) GLOBAL_UNIT_ASSIGNED_CONTEXT ( ( #382, #383, #374 ) ) REPRESENTATION_CONTEXT ( 'NONE', 'WORKASPACE' ) );
#314 = VECTOR ( 'NONE', #214, 1000.000000000000000 ) ;
#315 = VECTOR ( 'NONE', #8, 1000.000000000000000 ) ;
#316 = APPROVAL_PERSON_ORGANIZATION ( #381, #244, #346 ) ;
#317 = AXIS2_PLACEMENT_3D ( 'NONE', #215, #185, #207 ) ;
#318 = CIRCLE ( 'NONE', #329, 1.000000000000000900 ) ;
#319 = AXIS2_PLACEMENT_3D ( 'NONE', #17, #18, #19 ) ;
#320 = SECURITY_CLASSIFICATION ( '', '', #363 ) ;
#321 = AXIS2_PLACEMENT_3D ( 'NONE', #3, #4, #20 ) ;
#322 = LOCAL_TIME ( 16, 25, 47.00000000000000000, #358 ) ;
#323 = AXIS2_PLACEMENT_3D ( 'NONE', #22, #24, #23 ) ;
#324 = APPROVAL_PERSON_ORGANIZATION ( #341, #259, #385 ) ;
#325 = AXIS2_PLACEMENT_3D ( 'NONE', #202, #204, #209 ) ;
#326 = AXIS2_PLACEMENT_3D ( 'NONE', #367, #357, #340 ) ;
#327 = LOCAL_TIME ( 16, 25, 47.00000000000000000, #386 ) ;
#328 = VECTOR ( 'NONE', #14, 1000.000000000000000 ) ;
#329 = AXIS2_PLACEMENT_3D ( 'NONE', #2, #6, #5 ) ;
#330 = CIRCLE ( 'NONE', #319, 1.000000000000000900 ) ;
#331 = APPROVAL_PERSON_ORGANIZATION ( #344, #226, #372 ) ;
#332 = AXIS2_PLACEMENT_3D ( 'NONE', #13, #11, #12 ) ;
#333 = APPLICATION_CONTEXT ( 'configuration controlled 3d designs of mechanical parts and assemblies' ) ;
#334 = APPLICATION_CONTEXT ( 'configuration controlled 3d designs of mechanical parts and assemblies' ) ;
#335 = PRODUCT_DEFINITION_SHAPE ( 'NONE', 'NONE',  #224 ) ;
#336 = DESIGN_CONTEXT ( 'detailed design', #333, 'design' ) ;
#337 = UNCERTAINTY_MEASURE_WITH_UNIT (LENGTH_MEASURE( 1.000000000000000100E-005 ), #382, 'distance_accuracy_value', 'NONE');
#338 = DATE_AND_TIME ( #373, #303 ) ;
#339 = APPROVAL_STATUS ( 'not_yet_approved' ) ;
#340 = DIRECTION ( 'NONE',  ( 1.000000000000000000, 0.0000000000000000000, 0.0000000000000000000 ) ) ;
#341 = PERSON_AND_ORGANIZATION ( #266, #301 ) ;
#342 = PERSON_AND_ORGANIZATION ( #266, #301 ) ;
#343 = DATE_TIME_ROLE ( 'creation_date' ) ;
#344 = PERSON_AND_ORGANIZATION ( #266, #301 ) ;
#345 = DATE_AND_TIME ( #354, #300 ) ;
#346 = APPROVAL_ROLE ( '' ) ;
#347 = DATE_TIME_ROLE ( 'classification_date' ) ;
#348 = APPROVAL_STATUS ( 'not_yet_approved' ) ;
#349 = COORDINATED_UNIVERSAL_TIME_OFFSET ( 8, 0, .AHEAD. ) ;
#350 = PERSON_AND_ORGANIZATION_ROLE ( 'creator' ) ;
#351 = PERSON_AND_ORGANIZATION ( #266, #301 ) ;
#352 = PERSON_AND_ORGANIZATION_ROLE ( 'creator' ) ;
#353 = DATE_AND_TIME ( #369, #327 ) ;
#354 = CALENDAR_DATE ( 2020, 8, 12 ) ;
#355 = COORDINATED_UNIVERSAL_TIME_OFFSET ( 8, 0, .AHEAD. ) ;
#356 = PERSON_AND_ORGANIZATION_ROLE ( 'classification_officer' ) ;
#357 = DIRECTION ( 'NONE',  ( 0.0000000000000000000, 0.0000000000000000000, 1.000000000000000000 ) ) ;
#358 = COORDINATED_UNIVERSAL_TIME_OFFSET ( 8, 0, .AHEAD. ) ;
#359 = APPROVAL_DATE_TIME ( #353, #259 ) ;
#360 = PERSON_AND_ORGANIZATION ( #266, #301 ) ;
#361 = APPROVAL_DATE_TIME ( #380, #244 ) ;
#362 = SHAPE_DEFINITION_REPRESENTATION ( #335, #265 ) ;
#363 = SECURITY_CLASSIFICATION_LEVEL ( 'unclassified' ) ;
#364 = PERSON_AND_ORGANIZATION_ROLE ( 'design_supplier' ) ;
#365 = PERSON_AND_ORGANIZATION ( #266, #301 ) ;
#366 = CALENDAR_DATE ( 2020, 8, 12 ) ;
#367 = CARTESIAN_POINT ( 'NONE',  ( 0.0000000000000000000, 0.0000000000000000000, 0.0000000000000000000 ) ) ;
#368 = APPROVAL_DATE_TIME ( #338, #226 ) ;
#369 = CALENDAR_DATE ( 2020, 8, 12 ) ;
#370 = DATE_AND_TIME ( #378, #322 ) ;
#371 = APPROVAL_STATUS ( 'not_yet_approved' ) ;
#372 = APPROVAL_ROLE ( '' ) ;
#373 = CALENDAR_DATE ( 2020, 8, 12 ) ;
#374 =( NAMED_UNIT ( * ) SI_UNIT ( $, .STERADIAN. ) SOLID_ANGLE_UNIT ( ) );
#375 = APPLICATION_PROTOCOL_DEFINITION ( 'international standard', 'config_control_design', 1994, #334 ) ;
#376 = MECHANICAL_CONTEXT ( 'NONE', #334, 'mechanical' ) ;
#377 = PERSON_AND_ORGANIZATION ( #266, #301 ) ;
#378 = CALENDAR_DATE ( 2020, 8, 12 ) ;
#379 = COORDINATED_UNIVERSAL_TIME_OFFSET ( 8, 0, .AHEAD. ) ;
#380 = DATE_AND_TIME ( #366, #309 ) ;
#381 = PERSON_AND_ORGANIZATION ( #266, #301 ) ;
#382 =( LENGTH_UNIT ( ) NAMED_UNIT ( * ) SI_UNIT ( .MILLI., .METRE. ) );
#383 =( NAMED_UNIT ( * ) PLANE_ANGLE_UNIT ( ) SI_UNIT ( $, .RADIAN. ) );
#384 = APPLICATION_PROTOCOL_DEFINITION ( 'international standard', 'config_control_design', 1994, #333 ) ;
#385 = APPROVAL_ROLE ( '' ) ;
#386 = COORDINATED_UNIVERSAL_TIME_OFFSET ( 8, 0, .AHEAD. ) ;
#387 = PERSON_AND_ORGANIZATION_ROLE ( 'design_owner' ) ;
ENDSEC;
END-ISO-10303-21;
