ISO-10303-21;
HEADER;
FILE_DESCRIPTION (( 'STEP AP203' ),
    '1' );
FILE_NAME ('DF-QRL3-090050.STEP',
    '2017-11-14T02:56:15',
    ( '' ),
    ( '' ),
    'SwSTEP 2.0',
    'SolidWorks 2011',
    '' );
FILE_SCHEMA (( 'CONFIG_CONTROL_DESIGN' ));
ENDSEC;

DATA;
#1 = EDGE_CURVE ( 'NONE', #108, #105, #49, .T. ) ;
#2 = EDGE_CURVE ( 'NONE', #105, #93, #124, .T. ) ;
#3 = EDGE_CURVE ( 'NONE', #131, #116, #99, .T. ) ;
#4 = EDGE_CURVE ( 'NONE', #108, #133, #111, .T. ) ;
#5 = EDGE_CURVE ( 'NONE', #116, #132, #44, .T. ) ;
#6 = EDGE_CURVE ( 'NONE', #106, #131, #37, .T. ) ;
#7 = EDGE_CURVE ( 'NONE', #93, #133, #47, .T. ) ;
#8 = ADVANCED_FACE ( 'NONE', ( #152 ), #157, .T. ) ;
#9 = EDGE_CURVE ( 'NONE', #106, #132, #163, .T. ) ;
#10 = PRODUCT_RELATED_PRODUCT_CATEGORY ( 'detail', '', ( #83 ) ) ;
#11 = ADVANCED_FACE ( 'NONE', ( #162, #137 ), #147, .T. ) ;
#12 = ADVANCED_FACE ( 'NONE', ( #138 ), #166, .T. ) ;
#13 = ADVANCED_FACE ( 'NONE', ( #142, #159 ), #144, .F. ) ;
#14 = PRODUCT_DEFINITION ( 'UNKNOWN', '', #61, #79 ) ;
#15 = APPROVAL ( #219, 'UNSPECIFIED' ) ;
#16 = APPROVAL ( #218, 'UNSPECIFIED' ) ;
#17 = CC_DESIGN_PERSON_AND_ORGANIZATION_ASSIGNMENT ( #235, #215, ( #14 ) ) ;
#18 = EDGE_CURVE ( 'NONE', #105, #108, #50, .T. ) ;
#19 = EDGE_CURVE ( 'NONE', #133, #93, #71, .T. ) ;
#20 = CC_DESIGN_PERSON_AND_ORGANIZATION_ASSIGNMENT ( #247, #237, ( #61 ) ) ;
#21 = CC_DESIGN_DATE_AND_TIME_ASSIGNMENT ( #217, #242, ( #59 ) ) ;
#22 = CC_DESIGN_DATE_AND_TIME_ASSIGNMENT ( #248, #238, ( #14 ) ) ;
#23 = ADVANCED_FACE ( 'NONE', ( #178 ), #155, .F. ) ;
#24 = CC_DESIGN_PERSON_AND_ORGANIZATION_ASSIGNMENT ( #216, #246, ( #61 ) ) ;
#25 = EDGE_CURVE ( 'NONE', #131, #106, #60, .T. ) ;
#26 = APPROVAL ( #223, 'UNSPECIFIED' ) ;
#27 = ADVANCED_FACE ( 'NONE', ( #179 ), #174, .F. ) ;
#28 = EDGE_CURVE ( 'NONE', #132, #116, #58, .T. ) ;
#29 = CC_DESIGN_PERSON_AND_ORGANIZATION_ASSIGNMENT ( #203, #199, ( #83 ) ) ;
#30 = CC_DESIGN_PERSON_AND_ORGANIZATION_ASSIGNMENT ( #232, #214, ( #59 ) ) ;
#31 = APPLICATION_CONTEXT ( 'configuration controlled 3d designs of mechanical parts and assemblies' ) ;
#32 = APPLICATION_CONTEXT ( 'configuration controlled 3d designs of mechanical parts and assemblies' ) ;
#33 = AXIS2_PLACEMENT_3D ( 'NONE', #169, #190, #173 ) ;
#34 = AXIS2_PLACEMENT_3D ( 'NONE', #161, #136, #150 ) ;
#35 = AXIS2_PLACEMENT_3D ( 'NONE', #154, #139, #149 ) ;
#36 = AXIS2_PLACEMENT_3D ( 'NONE', #151, #160, #164 ) ;
#37 = CIRCLE ( 'NONE', #38, 20.00000000000000000 ) ;
#38 = AXIS2_PLACEMENT_3D ( 'NONE', #167, #148, #168 ) ;
#39 = VECTOR ( 'NONE', #100, 1000.000000000000000 ) ;
#40 = AXIS2_PLACEMENT_3D ( 'NONE', #89, #90, #98 ) ;
#41 = AXIS2_PLACEMENT_3D ( 'NONE', #143, #170, #171 ) ;
#42 = VECTOR ( 'NONE', #110, 1000.000000000000000 ) ;
#43 = CLOSED_SHELL ( 'NONE', ( #23, #12, #11, #13, #8, #27 ) ) ;
#44 = CIRCLE ( 'NONE', #41, 20.00000000000000000 ) ;
#45 = VECTOR ( 'NONE', #141, 1000.000000000000000 ) ;
#46 = VECTOR ( 'NONE', #156, 1000.000000000000000 ) ;
#47 = CIRCLE ( 'NONE', #48, 45.00000000000000700 ) ;
#48 = AXIS2_PLACEMENT_3D ( 'NONE', #172, #135, #140 ) ;
#49 = CIRCLE ( 'NONE', #40, 45.00000000000000700 ) ;
#50 = CIRCLE ( 'NONE', #33, 45.00000000000000700 ) ;
#51 = LOCAL_TIME ( 10, 56, 15.00000000000000000, #244 ) ;
#52 = LOCAL_TIME ( 10, 56, 15.00000000000000000, #230 ) ;
#53 = CC_DESIGN_APPROVAL ( #15, ( #59 ) ) ;
#54 = ORGANIZATION ( 'UNSPECIFIED', 'UNSPECIFIED', '' ) ;
#55 = CC_DESIGN_SECURITY_CLASSIFICATION ( #59, ( #61 ) ) ;
#56 = AXIS2_PLACEMENT_3D ( 'NONE', #195, #180, #177 ) ;
#57 = LOCAL_TIME ( 10, 56, 15.00000000000000000, #222 ) ;
#58 = CIRCLE ( 'NONE', #62, 20.00000000000000000 ) ;
#59 = SECURITY_CLASSIFICATION ( '', '', #240 ) ;
#60 = CIRCLE ( 'NONE', #74, 20.00000000000000000 ) ;
#61 = PRODUCT_DEFINITION_FORMATION_WITH_SPECIFIED_SOURCE ( 'ANY', '', #83, .NOT_KNOWN. ) ;
#62 = AXIS2_PLACEMENT_3D ( 'NONE', #176, #185, #186 ) ;
#63 =( GEOMETRIC_REPRESENTATION_CONTEXT ( 3 ) GLOBAL_UNCERTAINTY_ASSIGNED_CONTEXT ( ( #78 ) ) GLOBAL_UNIT_ASSIGNED_CONTEXT ( ( #208, #194, #184 ) ) REPRESENTATION_CONTEXT ( 'NONE', 'WORKASPACE' ) );
#64 = CC_DESIGN_APPROVAL ( #16, ( #14 ) ) ;
#65 = AXIS2_PLACEMENT_3D ( 'NONE', #191, #207, #192 ) ;
#66 = AXIS2_PLACEMENT_3D ( 'NONE', #202, #205, #200 ) ;
#67 = AXIS2_PLACEMENT_3D ( 'NONE', #145, #146, #153 ) ;
#68 = APPROVAL_PERSON_ORGANIZATION ( #212, #16, #224 ) ;
#69 = APPROVAL_PERSON_ORGANIZATION ( #236, #15, #243 ) ;
#70 = CC_DESIGN_APPROVAL ( #26, ( #61 ) ) ;
#71 = CIRCLE ( 'NONE', #56, 45.00000000000000700 ) ;
#72 = AXIS2_PLACEMENT_3D ( 'NONE', #158, #182, #197 ) ;
#73 = LOCAL_TIME ( 10, 56, 15.00000000000000000, #245 ) ;
#74 = AXIS2_PLACEMENT_3D ( 'NONE', #189, #209, #175 ) ;
#75 = APPROVAL_PERSON_ORGANIZATION ( #249, #26, #234 ) ;
#76 = LOCAL_TIME ( 10, 56, 15.00000000000000000, #226 ) ;
#77 = MANIFOLD_SOLID_BREP ( 'Boss-Extrude1', #43 ) ;
#78 = UNCERTAINTY_MEASURE_WITH_UNIT (LENGTH_MEASURE( 1.000000000000000100E-005 ), #208, 'distance_accuracy_value', 'NONE');
#79 = DESIGN_CONTEXT ( 'detailed design', #32, 'design' ) ;
#80 = PRODUCT_DEFINITION_SHAPE ( 'NONE', 'NONE',  #14 ) ;
#81 = ADVANCED_BREP_SHAPE_REPRESENTATION ( 'DF-QRL3-090050', ( #77, #66 ), #63 ) ;
#82 = PERSON ( 'UNSPECIFIED', 'UNSPECIFIED', 'UNSPECIFIED', ('UNSPECIFIED'), ('UNSPECIFIED'), ('UNSPECIFIED') ) ;
#83 = PRODUCT ( 'DF-QRL3-090050', 'DF-QRL3-090050', '', ( #210 ) ) ;
#84 = CARTESIAN_POINT ( 'NONE',  ( 0.0000000000000000000, 2.000000000000000000, -45.00000000000000700 ) ) ;
#85 = ORIENTED_EDGE ( 'NONE', *, *, #9, .F. ) ;
#86 = ORIENTED_EDGE ( 'NONE', *, *, #3, .T. ) ;
#87 = ORIENTED_EDGE ( 'NONE', *, *, #9, .T. ) ;
#88 = ORIENTED_EDGE ( 'NONE', *, *, #5, .T. ) ;
#89 = CARTESIAN_POINT ( 'NONE',  ( 0.0000000000000000000, 2.000000000000000000, 0.0000000000000000000 ) ) ;
#90 = DIRECTION ( 'NONE',  ( 0.0000000000000000000, 1.000000000000000000, 0.0000000000000000000 ) ) ;
#91 = ORIENTED_EDGE ( 'NONE', *, *, #6, .T. ) ;
#92 = ORIENTED_EDGE ( 'NONE', *, *, #18, .F. ) ;
#93 = VERTEX_POINT ( 'NONE', #201 ) ;
#94 = ORIENTED_EDGE ( 'NONE', *, *, #19, .T. ) ;
#95 = EDGE_LOOP ( 'NONE', ( #102, #125 ) ) ;
#96 = ORIENTED_EDGE ( 'NONE', *, *, #4, .F. ) ;
#97 = EDGE_LOOP ( 'NONE', ( #107, #130 ) ) ;
#98 = DIRECTION ( 'NONE',  ( 0.0000000000000000000, 0.0000000000000000000, 1.000000000000000000 ) ) ;
#99 = LINE ( 'NONE', #101, #42 ) ;
#100 = DIRECTION ( 'NONE',  ( -0.0000000000000000000, -1.000000000000000000, -0.0000000000000000000 ) ) ;
#101 = CARTESIAN_POINT ( 'NONE',  ( 2.449293598294706500E-015, 2.000000000000000000, 20.00000000000000000 ) ) ;
#102 = ORIENTED_EDGE ( 'NONE', *, *, #6, .F. ) ;
#103 = ORIENTED_EDGE ( 'NONE', *, *, #19, .F. ) ;
#104 = ORIENTED_EDGE ( 'NONE', *, *, #4, .T. ) ;
#105 = VERTEX_POINT ( 'NONE', #196 ) ;
#106 = VERTEX_POINT ( 'NONE', #206 ) ;
#107 = ORIENTED_EDGE ( 'NONE', *, *, #1, .T. ) ;
#108 = VERTEX_POINT ( 'NONE', #187 ) ;
#109 = ORIENTED_EDGE ( 'NONE', *, *, #2, .F. ) ;
#110 = DIRECTION ( 'NONE',  ( -0.0000000000000000000, -1.000000000000000000, -0.0000000000000000000 ) ) ;
#111 = LINE ( 'NONE', #84, #45 ) ;
#112 = ORIENTED_EDGE ( 'NONE', *, *, #28, .T. ) ;
#113 = EDGE_LOOP ( 'NONE', ( #92, #126, #129, #96 ) ) ;
#114 = ORIENTED_EDGE ( 'NONE', *, *, #3, .F. ) ;
#115 = EDGE_LOOP ( 'NONE', ( #103, #119 ) ) ;
#116 = VERTEX_POINT ( 'NONE', #181 ) ;
#117 = ORIENTED_EDGE ( 'NONE', *, *, #5, .F. ) ;
#118 = EDGE_LOOP ( 'NONE', ( #114, #122, #87, #117 ) ) ;
#119 = ORIENTED_EDGE ( 'NONE', *, *, #7, .F. ) ;
#120 = EDGE_LOOP ( 'NONE', ( #112, #88 ) ) ;
#121 = CARTESIAN_POINT ( 'NONE',  ( 5.510910596163090300E-015, 2.000000000000000000, 45.00000000000000700 ) ) ;
#122 = ORIENTED_EDGE ( 'NONE', *, *, #25, .T. ) ;
#123 = EDGE_LOOP ( 'NONE', ( #91, #86, #127, #85 ) ) ;
#124 = LINE ( 'NONE', #121, #39 ) ;
#125 = ORIENTED_EDGE ( 'NONE', *, *, #25, .F. ) ;
#126 = ORIENTED_EDGE ( 'NONE', *, *, #2, .T. ) ;
#127 = ORIENTED_EDGE ( 'NONE', *, *, #28, .F. ) ;
#128 = ORIENTED_EDGE ( 'NONE', *, *, #1, .F. ) ;
#129 = ORIENTED_EDGE ( 'NONE', *, *, #7, .T. ) ;
#130 = ORIENTED_EDGE ( 'NONE', *, *, #18, .T. ) ;
#131 = VERTEX_POINT ( 'NONE', #188 ) ;
#132 = VERTEX_POINT ( 'NONE', #183 ) ;
#133 = VERTEX_POINT ( 'NONE', #193 ) ;
#134 = EDGE_LOOP ( 'NONE', ( #109, #128, #104, #94 ) ) ;
#135 = DIRECTION ( 'NONE',  ( 0.0000000000000000000, 1.000000000000000000, 0.0000000000000000000 ) ) ;
#136 = DIRECTION ( 'NONE',  ( -0.0000000000000000000, -1.000000000000000000, -0.0000000000000000000 ) ) ;
#137 = FACE_BOUND ( 'NONE', #95, .T. ) ;
#138 = FACE_OUTER_BOUND ( 'NONE', #113, .T. ) ;
#139 = DIRECTION ( 'NONE',  ( 0.0000000000000000000, 1.000000000000000000, 0.0000000000000000000 ) ) ;
#140 = DIRECTION ( 'NONE',  ( 0.0000000000000000000, 0.0000000000000000000, 1.000000000000000000 ) ) ;
#141 = DIRECTION ( 'NONE',  ( -0.0000000000000000000, -1.000000000000000000, -0.0000000000000000000 ) ) ;
#142 = FACE_OUTER_BOUND ( 'NONE', #115, .T. ) ;
#143 = CARTESIAN_POINT ( 'NONE',  ( 0.0000000000000000000, 0.0000000000000000000, 0.0000000000000000000 ) ) ;
#144 = PLANE ( 'NONE',  #67 ) ;
#145 = CARTESIAN_POINT ( 'NONE',  ( 0.0000000000000000000, 0.0000000000000000000, 0.0000000000000000000 ) ) ;
#146 = DIRECTION ( 'NONE',  ( 0.0000000000000000000, 1.000000000000000000, 0.0000000000000000000 ) ) ;
#147 = PLANE ( 'NONE',  #35 ) ;
#148 = DIRECTION ( 'NONE',  ( 0.0000000000000000000, 1.000000000000000000, 0.0000000000000000000 ) ) ;
#149 = DIRECTION ( 'NONE',  ( 0.0000000000000000000, -0.0000000000000000000, 1.000000000000000000 ) ) ;
#150 = DIRECTION ( 'NONE',  ( 0.0000000000000000000, 0.0000000000000000000, -1.000000000000000000 ) ) ;
#151 = CARTESIAN_POINT ( 'NONE',  ( 0.0000000000000000000, 2.000000000000000000, 0.0000000000000000000 ) ) ;
#152 = FACE_OUTER_BOUND ( 'NONE', #134, .T. ) ;
#153 = DIRECTION ( 'NONE',  ( 0.0000000000000000000, -0.0000000000000000000, 1.000000000000000000 ) ) ;
#154 = CARTESIAN_POINT ( 'NONE',  ( 0.0000000000000000000, 2.000000000000000000, 0.0000000000000000000 ) ) ;
#155 = CYLINDRICAL_SURFACE ( 'NONE', #72, 20.00000000000000000 ) ;
#156 = DIRECTION ( 'NONE',  ( -0.0000000000000000000, -1.000000000000000000, -0.0000000000000000000 ) ) ;
#157 = CYLINDRICAL_SURFACE ( 'NONE', #34, 45.00000000000000700 ) ;
#158 = CARTESIAN_POINT ( 'NONE',  ( 0.0000000000000000000, 2.000000000000000000, 0.0000000000000000000 ) ) ;
#159 = FACE_BOUND ( 'NONE', #120, .T. ) ;
#160 = DIRECTION ( 'NONE',  ( -0.0000000000000000000, -1.000000000000000000, -0.0000000000000000000 ) ) ;
#161 = CARTESIAN_POINT ( 'NONE',  ( 0.0000000000000000000, 2.000000000000000000, 0.0000000000000000000 ) ) ;
#162 = FACE_OUTER_BOUND ( 'NONE', #97, .T. ) ;
#163 = LINE ( 'NONE', #165, #46 ) ;
#164 = DIRECTION ( 'NONE',  ( 0.0000000000000000000, 0.0000000000000000000, -1.000000000000000000 ) ) ;
#165 = CARTESIAN_POINT ( 'NONE',  ( 0.0000000000000000000, 2.000000000000000000, -20.00000000000000000 ) ) ;
#166 = CYLINDRICAL_SURFACE ( 'NONE', #36, 45.00000000000000700 ) ;
#167 = CARTESIAN_POINT ( 'NONE',  ( 0.0000000000000000000, 2.000000000000000000, 0.0000000000000000000 ) ) ;
#168 = DIRECTION ( 'NONE',  ( 0.0000000000000000000, 0.0000000000000000000, 1.000000000000000000 ) ) ;
#169 = CARTESIAN_POINT ( 'NONE',  ( 0.0000000000000000000, 2.000000000000000000, 0.0000000000000000000 ) ) ;
#170 = DIRECTION ( 'NONE',  ( 0.0000000000000000000, 1.000000000000000000, 0.0000000000000000000 ) ) ;
#171 = DIRECTION ( 'NONE',  ( 0.0000000000000000000, 0.0000000000000000000, 1.000000000000000000 ) ) ;
#172 = CARTESIAN_POINT ( 'NONE',  ( 0.0000000000000000000, 0.0000000000000000000, 0.0000000000000000000 ) ) ;
#173 = DIRECTION ( 'NONE',  ( 0.0000000000000000000, 0.0000000000000000000, 1.000000000000000000 ) ) ;
#174 = CYLINDRICAL_SURFACE ( 'NONE', #65, 20.00000000000000000 ) ;
#175 = DIRECTION ( 'NONE',  ( 0.0000000000000000000, 0.0000000000000000000, 1.000000000000000000 ) ) ;
#176 = CARTESIAN_POINT ( 'NONE',  ( 0.0000000000000000000, 0.0000000000000000000, 0.0000000000000000000 ) ) ;
#177 = DIRECTION ( 'NONE',  ( 0.0000000000000000000, 0.0000000000000000000, 1.000000000000000000 ) ) ;
#178 = FACE_OUTER_BOUND ( 'NONE', #123, .T. ) ;
#179 = FACE_OUTER_BOUND ( 'NONE', #118, .T. ) ;
#180 = DIRECTION ( 'NONE',  ( 0.0000000000000000000, 1.000000000000000000, 0.0000000000000000000 ) ) ;
#181 = CARTESIAN_POINT ( 'NONE',  ( 2.449293598294706500E-015, 0.0000000000000000000, 20.00000000000000000 ) ) ;
#182 = DIRECTION ( 'NONE',  ( -0.0000000000000000000, -1.000000000000000000, -0.0000000000000000000 ) ) ;
#183 = CARTESIAN_POINT ( 'NONE',  ( 0.0000000000000000000, 0.0000000000000000000, -20.00000000000000000 ) ) ;
#184 =( NAMED_UNIT ( * ) SI_UNIT ( $, .STERADIAN. ) SOLID_ANGLE_UNIT ( ) );
#185 = DIRECTION ( 'NONE',  ( 0.0000000000000000000, 1.000000000000000000, 0.0000000000000000000 ) ) ;
#186 = DIRECTION ( 'NONE',  ( 0.0000000000000000000, 0.0000000000000000000, 1.000000000000000000 ) ) ;
#187 = CARTESIAN_POINT ( 'NONE',  ( 0.0000000000000000000, 2.000000000000000000, -45.00000000000000700 ) ) ;
#188 = CARTESIAN_POINT ( 'NONE',  ( 2.449293598294706500E-015, 2.000000000000000000, 20.00000000000000000 ) ) ;
#189 = CARTESIAN_POINT ( 'NONE',  ( 0.0000000000000000000, 2.000000000000000000, 0.0000000000000000000 ) ) ;
#190 = DIRECTION ( 'NONE',  ( 0.0000000000000000000, 1.000000000000000000, 0.0000000000000000000 ) ) ;
#191 = CARTESIAN_POINT ( 'NONE',  ( 0.0000000000000000000, 2.000000000000000000, 0.0000000000000000000 ) ) ;
#192 = DIRECTION ( 'NONE',  ( 0.0000000000000000000, 0.0000000000000000000, -1.000000000000000000 ) ) ;
#193 = CARTESIAN_POINT ( 'NONE',  ( 0.0000000000000000000, 0.0000000000000000000, -45.00000000000000700 ) ) ;
#194 =( NAMED_UNIT ( * ) PLANE_ANGLE_UNIT ( ) SI_UNIT ( $, .RADIAN. ) );
#195 = CARTESIAN_POINT ( 'NONE',  ( 0.0000000000000000000, 0.0000000000000000000, 0.0000000000000000000 ) ) ;
#196 = CARTESIAN_POINT ( 'NONE',  ( 5.510910596163090300E-015, 2.000000000000000000, 45.00000000000000700 ) ) ;
#197 = DIRECTION ( 'NONE',  ( 0.0000000000000000000, 0.0000000000000000000, -1.000000000000000000 ) ) ;
#198 = SHAPE_DEFINITION_REPRESENTATION ( #80, #81 ) ;
#199 = PERSON_AND_ORGANIZATION_ROLE ( 'design_owner' ) ;
#200 = DIRECTION ( 'NONE',  ( 1.000000000000000000, 0.0000000000000000000, 0.0000000000000000000 ) ) ;
#201 = CARTESIAN_POINT ( 'NONE',  ( 5.510910596163090300E-015, 0.0000000000000000000, 45.00000000000000700 ) ) ;
#202 = CARTESIAN_POINT ( 'NONE',  ( 0.0000000000000000000, 0.0000000000000000000, 0.0000000000000000000 ) ) ;
#203 = PERSON_AND_ORGANIZATION ( #82, #54 ) ;
#204 = APPLICATION_PROTOCOL_DEFINITION ( 'international standard', 'config_control_design', 1994, #31 ) ;
#205 = DIRECTION ( 'NONE',  ( 0.0000000000000000000, 0.0000000000000000000, 1.000000000000000000 ) ) ;
#206 = CARTESIAN_POINT ( 'NONE',  ( 0.0000000000000000000, 2.000000000000000000, -20.00000000000000000 ) ) ;
#207 = DIRECTION ( 'NONE',  ( -0.0000000000000000000, -1.000000000000000000, -0.0000000000000000000 ) ) ;
#208 =( LENGTH_UNIT ( ) NAMED_UNIT ( * ) SI_UNIT ( .MILLI., .METRE. ) );
#209 = DIRECTION ( 'NONE',  ( 0.0000000000000000000, 1.000000000000000000, 0.0000000000000000000 ) ) ;
#210 = MECHANICAL_CONTEXT ( 'NONE', #31, 'mechanical' ) ;
#211 = APPLICATION_PROTOCOL_DEFINITION ( 'international standard', 'config_control_design', 1994, #32 ) ;
#212 = PERSON_AND_ORGANIZATION ( #82, #54 ) ;
#213 = CALENDAR_DATE ( 2017, 14, 11 ) ;
#214 = PERSON_AND_ORGANIZATION_ROLE ( 'classification_officer' ) ;
#215 = PERSON_AND_ORGANIZATION_ROLE ( 'creator' ) ;
#216 = PERSON_AND_ORGANIZATION ( #82, #54 ) ;
#217 = DATE_AND_TIME ( #241, #52 ) ;
#218 = APPROVAL_STATUS ( 'not_yet_approved' ) ;
#219 = APPROVAL_STATUS ( 'not_yet_approved' ) ;
#220 = DATE_AND_TIME ( #213, #76 ) ;
#221 = APPROVAL_DATE_TIME ( #220, #26 ) ;
#222 = COORDINATED_UNIVERSAL_TIME_OFFSET ( 8, 0, .AHEAD. ) ;
#223 = APPROVAL_STATUS ( 'not_yet_approved' ) ;
#224 = APPROVAL_ROLE ( '' ) ;
#225 = CALENDAR_DATE ( 2017, 14, 11 ) ;
#226 = COORDINATED_UNIVERSAL_TIME_OFFSET ( 8, 0, .AHEAD. ) ;
#227 = CALENDAR_DATE ( 2017, 14, 11 ) ;
#228 = DATE_AND_TIME ( #227, #73 ) ;
#229 = DATE_AND_TIME ( #225, #51 ) ;
#230 = COORDINATED_UNIVERSAL_TIME_OFFSET ( 8, 0, .AHEAD. ) ;
#231 = APPROVAL_DATE_TIME ( #228, #15 ) ;
#232 = PERSON_AND_ORGANIZATION ( #82, #54 ) ;
#233 = APPROVAL_DATE_TIME ( #229, #16 ) ;
#234 = APPROVAL_ROLE ( '' ) ;
#235 = PERSON_AND_ORGANIZATION ( #82, #54 ) ;
#236 = PERSON_AND_ORGANIZATION ( #82, #54 ) ;
#237 = PERSON_AND_ORGANIZATION_ROLE ( 'creator' ) ;
#238 = DATE_TIME_ROLE ( 'creation_date' ) ;
#239 = CALENDAR_DATE ( 2017, 14, 11 ) ;
#240 = SECURITY_CLASSIFICATION_LEVEL ( 'unclassified' ) ;
#241 = CALENDAR_DATE ( 2017, 14, 11 ) ;
#242 = DATE_TIME_ROLE ( 'classification_date' ) ;
#243 = APPROVAL_ROLE ( '' ) ;
#244 = COORDINATED_UNIVERSAL_TIME_OFFSET ( 8, 0, .AHEAD. ) ;
#245 = COORDINATED_UNIVERSAL_TIME_OFFSET ( 8, 0, .AHEAD. ) ;
#246 = PERSON_AND_ORGANIZATION_ROLE ( 'design_supplier' ) ;
#247 = PERSON_AND_ORGANIZATION ( #82, #54 ) ;
#248 = DATE_AND_TIME ( #239, #57 ) ;
#249 = PERSON_AND_ORGANIZATION ( #82, #54 ) ;
ENDSEC;
END-ISO-10303-21;
