ISO-10303-21;
HEADER;
FILE_DESCRIPTION (( 'STEP AP203' ),
    '1' );
FILE_NAME ('DF-QRL3-070032.STEP',
    '2017-11-14T02:50:45',
    ( '' ),
    ( '' ),
    'SwSTEP 2.0',
    'SolidWorks 2011',
    '' );
FILE_SCHEMA (( 'CONFIG_CONTROL_DESIGN' ));
ENDSEC;

DATA;
#1 = ADVANCED_FACE ( 'NONE', ( #62 ), #83, .F. ) ;
#2 = ADVANCED_FACE ( 'NONE', ( #86 ), #54, .T. ) ;
#3 = ADVANCED_FACE ( 'NONE', ( #47 ), #87, .T. ) ;
#4 = ADVANCED_FACE ( 'NONE', ( #66, #49 ), #44, .T. ) ;
#5 = ADVANCED_FACE ( 'NONE', ( #46, #57 ), #93, .F. ) ;
#6 = EDGE_CURVE ( 'NONE', #61, #81, #198, .T. ) ;
#7 = EDGE_CURVE ( 'NONE', #85, #81, #135, .T. ) ;
#8 = ADVANCED_FACE ( 'NONE', ( #121 ), #100, .F. ) ;
#9 = EDGE_CURVE ( 'NONE', #79, #53, #202, .T. ) ;
#10 = EDGE_CURVE ( 'NONE', #79, #56, #111, .T. ) ;
#11 = EDGE_CURVE ( 'NONE', #56, #78, #236, .T. ) ;
#12 = EDGE_CURVE ( 'NONE', #53, #78, #117, .T. ) ;
#13 = EDGE_CURVE ( 'NONE', #53, #79, #216, .T. ) ;
#14 = EDGE_CURVE ( 'NONE', #58, #61, #98, .T. ) ;
#15 = EDGE_CURVE ( 'NONE', #58, #85, #227, .T. ) ;
#16 = EDGE_CURVE ( 'NONE', #81, #61, #211, .T. ) ;
#17 = EDGE_CURVE ( 'NONE', #78, #56, #224, .T. ) ;
#18 = EDGE_CURVE ( 'NONE', #85, #58, #219, .T. ) ;
#19 = CC_DESIGN_PERSON_AND_ORGANIZATION_ASSIGNMENT ( #161, #143, ( #217 ) ) ;
#20 = CC_DESIGN_PERSON_AND_ORGANIZATION_ASSIGNMENT ( #146, #156, ( #208 ) ) ;
#21 = PRODUCT_RELATED_PRODUCT_CATEGORY ( 'detail', '', ( #249 ) ) ;
#22 = CC_DESIGN_DATE_AND_TIME_ASSIGNMENT ( #180, #181, ( #23 ) ) ;
#23 = PRODUCT_DEFINITION ( 'UNKNOWN', '', #217, #242 ) ;
#24 = CC_DESIGN_PERSON_AND_ORGANIZATION_ASSIGNMENT ( #142, #178, ( #23 ) ) ;
#25 = CC_DESIGN_PERSON_AND_ORGANIZATION_ASSIGNMENT ( #144, #157, ( #217 ) ) ;
#26 = APPROVAL ( #190, 'UNSPECIFIED' ) ;
#27 = CC_DESIGN_DATE_AND_TIME_ASSIGNMENT ( #158, #159, ( #208 ) ) ;
#28 = CC_DESIGN_PERSON_AND_ORGANIZATION_ASSIGNMENT ( #173, #179, ( #249 ) ) ;
#29 = APPROVAL ( #165, 'UNSPECIFIED' ) ;
#30 = APPROVAL ( #162, 'UNSPECIFIED' ) ;
#31 = ORIENTED_EDGE ( 'NONE', *, *, #18, .T. ) ;
#32 = ORIENTED_EDGE ( 'NONE', *, *, #11, .T. ) ;
#33 = ORIENTED_EDGE ( 'NONE', *, *, #7, .T. ) ;
#34 = ORIENTED_EDGE ( 'NONE', *, *, #17, .F. ) ;
#35 = ORIENTED_EDGE ( 'NONE', *, *, #15, .F. ) ;
#36 = ORIENTED_EDGE ( 'NONE', *, *, #13, .T. ) ;
#37 = ORIENTED_EDGE ( 'NONE', *, *, #12, .T. ) ;
#38 = ORIENTED_EDGE ( 'NONE', *, *, #16, .T. ) ;
#39 = ORIENTED_EDGE ( 'NONE', *, *, #14, .T. ) ;
#40 = ORIENTED_EDGE ( 'NONE', *, *, #17, .T. ) ;
#41 = ORIENTED_EDGE ( 'NONE', *, *, #10, .T. ) ;
#42 = ORIENTED_EDGE ( 'NONE', *, *, #12, .F. ) ;
#43 = ORIENTED_EDGE ( 'NONE', *, *, #10, .F. ) ;
#44 = PLANE ( 'NONE',  #206 ) ;
#45 = DIRECTION ( 'NONE',  ( -0.0000000000000000000, -1.000000000000000000, -0.0000000000000000000 ) ) ;
#46 = FACE_BOUND ( 'NONE', #65, .T. ) ;
#47 = FACE_OUTER_BOUND ( 'NONE', #82, .T. ) ;
#48 = CARTESIAN_POINT ( 'NONE',  ( 0.0000000000000000000, 3.000000000000000000, 0.0000000000000000000 ) ) ;
#49 = FACE_OUTER_BOUND ( 'NONE', #91, .T. ) ;
#50 = CARTESIAN_POINT ( 'NONE',  ( 0.0000000000000000000, 0.0000000000000000000, 0.0000000000000000000 ) ) ;
#51 = ORIENTED_EDGE ( 'NONE', *, *, #6, .F. ) ;
#52 = EDGE_LOOP ( 'NONE', ( #43, #72, #37, #40 ) ) ;
#53 = VERTEX_POINT ( 'NONE', #133 ) ;
#54 = CYLINDRICAL_SURFACE ( 'NONE', #199, 35.00000000000000700 ) ;
#55 = DIRECTION ( 'NONE',  ( 0.0000000000000000000, 1.000000000000000000, 0.0000000000000000000 ) ) ;
#56 = VERTEX_POINT ( 'NONE', #116 ) ;
#57 = FACE_OUTER_BOUND ( 'NONE', #60, .T. ) ;
#58 = VERTEX_POINT ( 'NONE', #191 ) ;
#59 = DIRECTION ( 'NONE',  ( 0.0000000000000000000, 1.000000000000000000, 0.0000000000000000000 ) ) ;
#60 = EDGE_LOOP ( 'NONE', ( #74, #51 ) ) ;
#61 = VERTEX_POINT ( 'NONE', #103 ) ;
#62 = FACE_OUTER_BOUND ( 'NONE', #76, .T. ) ;
#63 = DIRECTION ( 'NONE',  ( 0.0000000000000000000, 0.0000000000000000000, 1.000000000000000000 ) ) ;
#64 = CARTESIAN_POINT ( 'NONE',  ( 0.0000000000000000000, 0.0000000000000000000, 0.0000000000000000000 ) ) ;
#65 = EDGE_LOOP ( 'NONE', ( #36, #80 ) ) ;
#66 = FACE_BOUND ( 'NONE', #77, .T. ) ;
#67 = CARTESIAN_POINT ( 'NONE',  ( 0.0000000000000000000, 3.000000000000000000, 0.0000000000000000000 ) ) ;
#68 = DIRECTION ( 'NONE',  ( 0.0000000000000000000, 0.0000000000000000000, -1.000000000000000000 ) ) ;
#69 = DIRECTION ( 'NONE',  ( 0.0000000000000000000, -0.0000000000000000000, 1.000000000000000000 ) ) ;
#70 = ORIENTED_EDGE ( 'NONE', *, *, #18, .F. ) ;
#71 = EDGE_LOOP ( 'NONE', ( #35, #39, #90, #75 ) ) ;
#72 = ORIENTED_EDGE ( 'NONE', *, *, #13, .F. ) ;
#73 = ORIENTED_EDGE ( 'NONE', *, *, #11, .F. ) ;
#74 = ORIENTED_EDGE ( 'NONE', *, *, #16, .F. ) ;
#75 = ORIENTED_EDGE ( 'NONE', *, *, #7, .F. ) ;
#76 = EDGE_LOOP ( 'NONE', ( #92, #41, #32, #42 ) ) ;
#77 = EDGE_LOOP ( 'NONE', ( #34, #73 ) ) ;
#78 = VERTEX_POINT ( 'NONE', #182 ) ;
#79 = VERTEX_POINT ( 'NONE', #113 ) ;
#80 = ORIENTED_EDGE ( 'NONE', *, *, #9, .T. ) ;
#81 = VERTEX_POINT ( 'NONE', #123 ) ;
#82 = EDGE_LOOP ( 'NONE', ( #84, #70, #33, #38 ) ) ;
#83 = CYLINDRICAL_SURFACE ( 'NONE', #205, 12.00000000000000200 ) ;
#84 = ORIENTED_EDGE ( 'NONE', *, *, #14, .F. ) ;
#85 = VERTEX_POINT ( 'NONE', #177 ) ;
#86 = FACE_OUTER_BOUND ( 'NONE', #71, .T. ) ;
#87 = CYLINDRICAL_SURFACE ( 'NONE', #197, 35.00000000000000700 ) ;
#88 = DIRECTION ( 'NONE',  ( -0.0000000000000000000, -1.000000000000000000, -0.0000000000000000000 ) ) ;
#89 = DIRECTION ( 'NONE',  ( 0.0000000000000000000, 0.0000000000000000000, -1.000000000000000000 ) ) ;
#90 = ORIENTED_EDGE ( 'NONE', *, *, #6, .T. ) ;
#91 = EDGE_LOOP ( 'NONE', ( #31, #95 ) ) ;
#92 = ORIENTED_EDGE ( 'NONE', *, *, #9, .F. ) ;
#93 = PLANE ( 'NONE',  #201 ) ;
#94 = DIRECTION ( 'NONE',  ( -0.0000000000000000000, 1.000000000000000000, -0.0000000000000000000 ) ) ;
#95 = ORIENTED_EDGE ( 'NONE', *, *, #15, .T. ) ;
#96 = CARTESIAN_POINT ( 'NONE',  ( 0.0000000000000000000, 3.000000000000000000, 0.0000000000000000000 ) ) ;
#97 = CARTESIAN_POINT ( 'NONE',  ( 0.0000000000000000000, 0.0000000000000000000, 0.0000000000000000000 ) ) ;
#98 = LINE ( 'NONE', #118, #240 ) ;
#99 = DIRECTION ( 'NONE',  ( 0.0000000000000000000, 1.000000000000000000, 0.0000000000000000000 ) ) ;
#100 = CYLINDRICAL_SURFACE ( 'NONE', #210, 12.00000000000000200 ) ;
#101 = CARTESIAN_POINT ( 'NONE',  ( 0.0000000000000000000, 0.0000000000000000000, 12.00000000000000200 ) ) ;
#102 = DIRECTION ( 'NONE',  ( 0.0000000000000000000, 1.000000000000000000, 0.0000000000000000000 ) ) ;
#103 = CARTESIAN_POINT ( 'NONE',  ( 4.286263797015737300E-015, 0.0000000000000000000, 35.00000000000000700 ) ) ;
#104 = DIRECTION ( 'NONE',  ( 0.0000000000000000000, 0.0000000000000000000, 1.000000000000000000 ) ) ;
#105 = DIRECTION ( 'NONE',  ( 0.0000000000000000000, 0.0000000000000000000, 1.000000000000000000 ) ) ;
#106 = DIRECTION ( 'NONE',  ( 0.0000000000000000000, 1.000000000000000000, 0.0000000000000000000 ) ) ;
#107 = CARTESIAN_POINT ( 'NONE',  ( 1.469576158976824100E-015, 0.0000000000000000000, -12.00000000000000200 ) ) ;
#108 = DIRECTION ( 'NONE',  ( 0.0000000000000000000, 1.000000000000000000, 0.0000000000000000000 ) ) ;
#109 = DIRECTION ( 'NONE',  ( 0.0000000000000000000, 1.000000000000000000, 0.0000000000000000000 ) ) ;
#110 = DIRECTION ( 'NONE',  ( 0.0000000000000000000, 0.0000000000000000000, 1.000000000000000000 ) ) ;
#111 = LINE ( 'NONE', #107, #218 ) ;
#112 = CARTESIAN_POINT ( 'NONE',  ( 0.0000000000000000000, 3.000000000000000000, -35.00000000000000700 ) ) ;
#113 = CARTESIAN_POINT ( 'NONE',  ( 1.469576158976824100E-015, 0.0000000000000000000, -12.00000000000000200 ) ) ;
#114 = DIRECTION ( 'NONE',  ( 0.0000000000000000000, 0.0000000000000000000, 1.000000000000000000 ) ) ;
#115 = CARTESIAN_POINT ( 'NONE',  ( 0.0000000000000000000, 0.0000000000000000000, 0.0000000000000000000 ) ) ;
#116 = CARTESIAN_POINT ( 'NONE',  ( 1.469576158976824100E-015, 3.000000000000000000, -12.00000000000000200 ) ) ;
#117 = LINE ( 'NONE', #101, #223 ) ;
#118 = CARTESIAN_POINT ( 'NONE',  ( 4.286263797015737300E-015, 3.000000000000000000, 35.00000000000000700 ) ) ;
#119 = DIRECTION ( 'NONE',  ( 0.0000000000000000000, 0.0000000000000000000, 1.000000000000000000 ) ) ;
#120 = DIRECTION ( 'NONE',  ( 0.0000000000000000000, 1.000000000000000000, 0.0000000000000000000 ) ) ;
#121 = FACE_OUTER_BOUND ( 'NONE', #52, .T. ) ;
#122 = CARTESIAN_POINT ( 'NONE',  ( 0.0000000000000000000, 0.0000000000000000000, 0.0000000000000000000 ) ) ;
#123 = CARTESIAN_POINT ( 'NONE',  ( 0.0000000000000000000, 0.0000000000000000000, -35.00000000000000700 ) ) ;
#124 = DIRECTION ( 'NONE',  ( -0.0000000000000000000, -1.000000000000000000, -0.0000000000000000000 ) ) ;
#125 = CARTESIAN_POINT ( 'NONE',  ( 0.0000000000000000000, 0.0000000000000000000, 0.0000000000000000000 ) ) ;
#126 = DIRECTION ( 'NONE',  ( -0.0000000000000000000, 1.000000000000000000, -0.0000000000000000000 ) ) ;
#127 = CARTESIAN_POINT ( 'NONE',  ( 0.0000000000000000000, 3.000000000000000000, 0.0000000000000000000 ) ) ;
#128 = DIRECTION ( 'NONE',  ( 0.0000000000000000000, 0.0000000000000000000, 1.000000000000000000 ) ) ;
#129 = DIRECTION ( 'NONE',  ( 0.0000000000000000000, 0.0000000000000000000, 1.000000000000000000 ) ) ;
#130 = DIRECTION ( 'NONE',  ( 0.0000000000000000000, 1.000000000000000000, 0.0000000000000000000 ) ) ;
#131 = DIRECTION ( 'NONE',  ( 0.0000000000000000000, 0.0000000000000000000, 1.000000000000000000 ) ) ;
#132 = DIRECTION ( 'NONE',  ( -0.0000000000000000000, -1.000000000000000000, -0.0000000000000000000 ) ) ;
#133 = CARTESIAN_POINT ( 'NONE',  ( 0.0000000000000000000, 0.0000000000000000000, 12.00000000000000200 ) ) ;
#134 = CARTESIAN_POINT ( 'NONE',  ( 0.0000000000000000000, 3.000000000000000000, 0.0000000000000000000 ) ) ;
#135 = LINE ( 'NONE', #112, #204 ) ;
#136 = DIRECTION ( 'NONE',  ( -0.0000000000000000000, 1.000000000000000000, -0.0000000000000000000 ) ) ;
#137 = DIRECTION ( 'NONE',  ( -0.0000000000000000000, 1.000000000000000000, -0.0000000000000000000 ) ) ;
#138 = CARTESIAN_POINT ( 'NONE',  ( 0.0000000000000000000, 3.000000000000000000, 0.0000000000000000000 ) ) ;
#139 = DIRECTION ( 'NONE',  ( 0.0000000000000000000, -0.0000000000000000000, 1.000000000000000000 ) ) ;
#140 = CARTESIAN_POINT ( 'NONE',  ( 0.0000000000000000000, 0.0000000000000000000, 0.0000000000000000000 ) ) ;
#141 = CALENDAR_DATE ( 2017, 14, 11 ) ;
#142 = PERSON_AND_ORGANIZATION ( #247, #220 ) ;
#143 = PERSON_AND_ORGANIZATION_ROLE ( 'creator' ) ;
#144 = PERSON_AND_ORGANIZATION ( #247, #220 ) ;
#145 = SECURITY_CLASSIFICATION_LEVEL ( 'unclassified' ) ;
#146 = PERSON_AND_ORGANIZATION ( #247, #220 ) ;
#147 = CALENDAR_DATE ( 2017, 14, 11 ) ;
#148 = APPROVAL_DATE_TIME ( #154, #29 ) ;
#149 = DIRECTION ( 'NONE',  ( 1.000000000000000000, 0.0000000000000000000, 0.0000000000000000000 ) ) ;
#150 = MECHANICAL_CONTEXT ( 'NONE', #246, 'mechanical' ) ;
#151 = COORDINATED_UNIVERSAL_TIME_OFFSET ( 8, 0, .AHEAD. ) ;
#152 = APPLICATION_PROTOCOL_DEFINITION ( 'international standard', 'config_control_design', 1994, #246 ) ;
#153 = DIRECTION ( 'NONE',  ( 0.0000000000000000000, 0.0000000000000000000, 1.000000000000000000 ) ) ;
#154 = DATE_AND_TIME ( #141, #232 ) ;
#155 = CALENDAR_DATE ( 2017, 14, 11 ) ;
#156 = PERSON_AND_ORGANIZATION_ROLE ( 'classification_officer' ) ;
#157 = PERSON_AND_ORGANIZATION_ROLE ( 'design_supplier' ) ;
#158 = DATE_AND_TIME ( #147, #225 ) ;
#159 = DATE_TIME_ROLE ( 'classification_date' ) ;
#160 = PERSON_AND_ORGANIZATION ( #247, #220 ) ;
#161 = PERSON_AND_ORGANIZATION ( #247, #220 ) ;
#162 = APPROVAL_STATUS ( 'not_yet_approved' ) ;
#163 = APPROVAL_ROLE ( '' ) ;
#164 =( NAMED_UNIT ( * ) PLANE_ANGLE_UNIT ( ) SI_UNIT ( $, .RADIAN. ) );
#165 = APPROVAL_STATUS ( 'not_yet_approved' ) ;
#166 = APPROVAL_ROLE ( '' ) ;
#167 = APPROVAL_DATE_TIME ( #188, #26 ) ;
#168 = CALENDAR_DATE ( 2017, 14, 11 ) ;
#169 = COORDINATED_UNIVERSAL_TIME_OFFSET ( 8, 0, .AHEAD. ) ;
#170 = SHAPE_DEFINITION_REPRESENTATION ( #241, #248 ) ;
#171 = APPLICATION_PROTOCOL_DEFINITION ( 'international standard', 'config_control_design', 1994, #245 ) ;
#172 = DIRECTION ( 'NONE',  ( 0.0000000000000000000, 1.000000000000000000, 0.0000000000000000000 ) ) ;
#173 = PERSON_AND_ORGANIZATION ( #247, #220 ) ;
#174 = COORDINATED_UNIVERSAL_TIME_OFFSET ( 8, 0, .AHEAD. ) ;
#175 = CARTESIAN_POINT ( 'NONE',  ( 0.0000000000000000000, 0.0000000000000000000, 0.0000000000000000000 ) ) ;
#176 = DIRECTION ( 'NONE',  ( 0.0000000000000000000, 0.0000000000000000000, 1.000000000000000000 ) ) ;
#177 = CARTESIAN_POINT ( 'NONE',  ( 0.0000000000000000000, 3.000000000000000000, -35.00000000000000700 ) ) ;
#178 = PERSON_AND_ORGANIZATION_ROLE ( 'creator' ) ;
#179 = PERSON_AND_ORGANIZATION_ROLE ( 'design_owner' ) ;
#180 = DATE_AND_TIME ( #155, #230 ) ;
#181 = DATE_TIME_ROLE ( 'creation_date' ) ;
#182 = CARTESIAN_POINT ( 'NONE',  ( 0.0000000000000000000, 3.000000000000000000, 12.00000000000000200 ) ) ;
#183 =( LENGTH_UNIT ( ) NAMED_UNIT ( * ) SI_UNIT ( .MILLI., .METRE. ) );
#184 = PERSON_AND_ORGANIZATION ( #247, #220 ) ;
#185 = CARTESIAN_POINT ( 'NONE',  ( 0.0000000000000000000, 3.000000000000000000, 0.0000000000000000000 ) ) ;
#186 = COORDINATED_UNIVERSAL_TIME_OFFSET ( 8, 0, .AHEAD. ) ;
#187 = PERSON_AND_ORGANIZATION ( #247, #220 ) ;
#188 = DATE_AND_TIME ( #168, #238 ) ;
#189 =( NAMED_UNIT ( * ) SI_UNIT ( $, .STERADIAN. ) SOLID_ANGLE_UNIT ( ) );
#190 = APPROVAL_STATUS ( 'not_yet_approved' ) ;
#191 = CARTESIAN_POINT ( 'NONE',  ( 4.286263797015737300E-015, 3.000000000000000000, 35.00000000000000700 ) ) ;
#192 = APPROVAL_ROLE ( '' ) ;
#193 = CALENDAR_DATE ( 2017, 14, 11 ) ;
#194 = COORDINATED_UNIVERSAL_TIME_OFFSET ( 8, 0, .AHEAD. ) ;
#195 = DATE_AND_TIME ( #193, #233 ) ;
#196 = APPROVAL_DATE_TIME ( #195, #30 ) ;
#197 = AXIS2_PLACEMENT_3D ( 'NONE', #48, #88, #89 ) ;
#198 = CIRCLE ( 'NONE', #200, 35.00000000000000700 ) ;
#199 = AXIS2_PLACEMENT_3D ( 'NONE', #96, #45, #68 ) ;
#200 = AXIS2_PLACEMENT_3D ( 'NONE', #125, #102, #128 ) ;
#201 = AXIS2_PLACEMENT_3D ( 'NONE', #50, #59, #139 ) ;
#202 = CIRCLE ( 'NONE', #229, 12.00000000000000200 ) ;
#203 = CLOSED_SHELL ( 'NONE', ( #1, #2, #3, #4, #5, #8 ) ) ;
#204 = VECTOR ( 'NONE', #124, 1000.000000000000000 ) ;
#205 = AXIS2_PLACEMENT_3D ( 'NONE', #64, #94, #63 ) ;
#206 = AXIS2_PLACEMENT_3D ( 'NONE', #67, #55, #69 ) ;
#207 =( GEOMETRIC_REPRESENTATION_CONTEXT ( 3 ) GLOBAL_UNCERTAINTY_ASSIGNED_CONTEXT ( ( #244 ) ) GLOBAL_UNIT_ASSIGNED_CONTEXT ( ( #183, #164, #189 ) ) REPRESENTATION_CONTEXT ( 'NONE', 'WORKASPACE' ) );
#208 = SECURITY_CLASSIFICATION ( '', '', #145 ) ;
#209 = AXIS2_PLACEMENT_3D ( 'NONE', #115, #108, #114 ) ;
#210 = AXIS2_PLACEMENT_3D ( 'NONE', #140, #136, #119 ) ;
#211 = CIRCLE ( 'NONE', #209, 35.00000000000000700 ) ;
#212 = CC_DESIGN_APPROVAL ( #30, ( #208 ) ) ;
#213 = AXIS2_PLACEMENT_3D ( 'NONE', #175, #153, #149 ) ;
#214 = CC_DESIGN_APPROVAL ( #29, ( #23 ) ) ;
#215 = APPROVAL_PERSON_ORGANIZATION ( #187, #26, #163 ) ;
#216 = CIRCLE ( 'NONE', #226, 12.00000000000000200 ) ;
#217 = PRODUCT_DEFINITION_FORMATION_WITH_SPECIFIED_SOURCE ( 'ANY', '', #249, .NOT_KNOWN. ) ;
#218 = VECTOR ( 'NONE', #137, 1000.000000000000000 ) ;
#219 = CIRCLE ( 'NONE', #237, 35.00000000000000700 ) ;
#220 = ORGANIZATION ( 'UNSPECIFIED', 'UNSPECIFIED', '' ) ;
#221 = AXIS2_PLACEMENT_3D ( 'NONE', #127, #130, #131 ) ;
#222 = CC_DESIGN_APPROVAL ( #26, ( #217 ) ) ;
#223 = VECTOR ( 'NONE', #126, 1000.000000000000000 ) ;
#224 = CIRCLE ( 'NONE', #235, 12.00000000000000200 ) ;
#225 = LOCAL_TIME ( 10, 50, 45.00000000000000000, #169 ) ;
#226 = AXIS2_PLACEMENT_3D ( 'NONE', #122, #99, #104 ) ;
#227 = CIRCLE ( 'NONE', #221, 35.00000000000000700 ) ;
#228 = APPROVAL_PERSON_ORGANIZATION ( #160, #30, #192 ) ;
#229 = AXIS2_PLACEMENT_3D ( 'NONE', #97, #120, #110 ) ;
#230 = LOCAL_TIME ( 10, 50, 45.00000000000000000, #186 ) ;
#231 = APPROVAL_PERSON_ORGANIZATION ( #184, #29, #166 ) ;
#232 = LOCAL_TIME ( 10, 50, 45.00000000000000000, #151 ) ;
#233 = LOCAL_TIME ( 10, 50, 45.00000000000000000, #194 ) ;
#234 = AXIS2_PLACEMENT_3D ( 'NONE', #134, #106, #129 ) ;
#235 = AXIS2_PLACEMENT_3D ( 'NONE', #138, #109, #105 ) ;
#236 = CIRCLE ( 'NONE', #234, 12.00000000000000200 ) ;
#237 = AXIS2_PLACEMENT_3D ( 'NONE', #185, #172, #176 ) ;
#238 = LOCAL_TIME ( 10, 50, 45.00000000000000000, #174 ) ;
#239 = CC_DESIGN_SECURITY_CLASSIFICATION ( #208, ( #217 ) ) ;
#240 = VECTOR ( 'NONE', #132, 1000.000000000000000 ) ;
#241 = PRODUCT_DEFINITION_SHAPE ( 'NONE', 'NONE',  #23 ) ;
#242 = DESIGN_CONTEXT ( 'detailed design', #245, 'design' ) ;
#243 = MANIFOLD_SOLID_BREP ( '??? - ????1', #203 ) ;
#244 = UNCERTAINTY_MEASURE_WITH_UNIT (LENGTH_MEASURE( 1.000000000000000100E-005 ), #183, 'distance_accuracy_value', 'NONE');
#245 = APPLICATION_CONTEXT ( 'configuration controlled 3d designs of mechanical parts and assemblies' ) ;
#246 = APPLICATION_CONTEXT ( 'configuration controlled 3d designs of mechanical parts and assemblies' ) ;
#247 = PERSON ( 'UNSPECIFIED', 'UNSPECIFIED', 'UNSPECIFIED', ('UNSPECIFIED'), ('UNSPECIFIED'), ('UNSPECIFIED') ) ;
#248 = ADVANCED_BREP_SHAPE_REPRESENTATION ( 'DF-QRL3-070032', ( #243, #213 ), #207 ) ;
#249 = PRODUCT ( 'DF-QRL3-070032', 'DF-QRL3-070032', '', ( #150 ) ) ;
ENDSEC;
END-ISO-10303-21;
