ISO-10303-21;
HEADER;
FILE_DESCRIPTION (( 'STEP AP203' ),
    '1' );
FILE_NAME ('DF-QRL3-050028.STEP',
    '2017-11-14T02:40:25',
    ( '' ),
    ( '' ),
    'SwSTEP 2.0',
    'SolidWorks 2011',
    '' );
FILE_SCHEMA (( 'CONFIG_CONTROL_DESIGN' ));
ENDSEC;

DATA;
#1 = APPLICATION_CONTEXT ( 'configuration controlled 3d designs of mechanical parts and assemblies' ) ;
#2 = APPLICATION_CONTEXT ( 'configuration controlled 3d designs of mechanical parts and assemblies' ) ;
#3 = EDGE_CURVE ( 'NONE', #88, #96, #77, .T. ) ;
#4 = EDGE_CURVE ( 'NONE', #87, #88, #126, .T. ) ;
#5 = ADVANCED_FACE ( 'NONE', ( #130 ), #131, .T. ) ;
#6 = ADVANCED_FACE ( 'NONE', ( #127, #129 ), #143, .T. ) ;
#7 = ADVANCED_FACE ( 'NONE', ( #142, #136 ), #133, .F. ) ;
#8 = ADVANCED_FACE ( 'NONE', ( #149 ), #150, .T. ) ;
#9 = ADVANCED_FACE ( 'NONE', ( #112 ), #184, .F. ) ;
#10 = PRODUCT ( 'DF-QRL3-050028', 'DF-QRL3-050028', '', ( #243 ) ) ;
#11 = AXIS2_PLACEMENT_3D ( 'NONE', #162, #156, #194 ) ;
#12 = AXIS2_PLACEMENT_3D ( 'NONE', #153, #171, #168 ) ;
#13 = CIRCLE ( 'NONE', #15, 12.50000000000000000 ) ;
#14 = CIRCLE ( 'NONE', #16, 12.50000000000000000 ) ;
#15 = AXIS2_PLACEMENT_3D ( 'NONE', #158, #164, #190 ) ;
#16 = AXIS2_PLACEMENT_3D ( 'NONE', #163, #166, #182 ) ;
#17 = EDGE_CURVE ( 'NONE', #85, #99, #24, .T. ) ;
#18 = EDGE_CURVE ( 'NONE', #85, #98, #177, .T. ) ;
#19 = AXIS2_PLACEMENT_3D ( 'NONE', #159, #157, #185 ) ;
#20 = CIRCLE ( 'NONE', #19, 25.00000000000000000 ) ;
#21 = AXIS2_PLACEMENT_3D ( 'NONE', #181, #191, #165 ) ;
#22 = CIRCLE ( 'NONE', #25, 12.50000000000000000 ) ;
#23 = CIRCLE ( 'NONE', #11, 25.00000000000000000 ) ;
#24 = CIRCLE ( 'NONE', #27, 25.00000000000000000 ) ;
#25 = AXIS2_PLACEMENT_3D ( 'NONE', #152, #173, #175 ) ;
#26 = VECTOR ( 'NONE', #170, 1000.000000000000000 ) ;
#27 = AXIS2_PLACEMENT_3D ( 'NONE', #172, #160, #169 ) ;
#28 = AXIS2_PLACEMENT_3D ( 'NONE', #161, #187, #155 ) ;
#29 = CIRCLE ( 'NONE', #28, 25.00000000000000000 ) ;
#30 = VECTOR ( 'NONE', #180, 1000.000000000000000 ) ;
#31 = EDGE_CURVE ( 'NONE', #98, #100, #29, .T. ) ;
#32 = EDGE_CURVE ( 'NONE', #99, #100, #176, .T. ) ;
#33 = ADVANCED_BREP_SHAPE_REPRESENTATION ( 'DF-QRL3-050028', ( #249, #35 ), #79 ) ;
#34 = PERSON ( 'UNSPECIFIED', 'UNSPECIFIED', 'UNSPECIFIED', ('UNSPECIFIED'), ('UNSPECIFIED'), ('UNSPECIFIED') ) ;
#35 = AXIS2_PLACEMENT_3D ( 'NONE', #196, #207, #210 ) ;
#36 = APPROVAL_PERSON_ORGANIZATION ( #212, #61, #242 ) ;
#37 = CC_DESIGN_APPROVAL ( #61, ( #59 ) ) ;
#38 = LOCAL_TIME ( 10, 40, 25.00000000000000000, #204 ) ;
#39 = ORGANIZATION ( 'UNSPECIFIED', 'UNSPECIFIED', '' ) ;
#40 = LOCAL_TIME ( 10, 40, 25.00000000000000000, #217 ) ;
#41 = EDGE_CURVE ( 'NONE', #99, #85, #20, .T. ) ;
#42 = EDGE_CURVE ( 'NONE', #97, #87, #22, .T. ) ;
#43 = UNCERTAINTY_MEASURE_WITH_UNIT (LENGTH_MEASURE( 1.000000000000000100E-005 ), #208, 'distance_accuracy_value', 'NONE');
#44 = PRODUCT_DEFINITION_SHAPE ( 'NONE', 'NONE',  #59 ) ;
#45 = DESIGN_CONTEXT ( 'detailed design', #1, 'design' ) ;
#46 = SECURITY_CLASSIFICATION ( '', '', #223 ) ;
#47 = LOCAL_TIME ( 10, 40, 25.00000000000000000, #236 ) ;
#48 = PRODUCT_DEFINITION_FORMATION_WITH_SPECIFIED_SOURCE ( 'ANY', '', #10, .NOT_KNOWN. ) ;
#49 = APPROVAL_PERSON_ORGANIZATION ( #202, #54, #227 ) ;
#50 = LOCAL_TIME ( 10, 40, 25.00000000000000000, #213 ) ;
#51 = CC_DESIGN_APPROVAL ( #54, ( #48 ) ) ;
#52 = PRODUCT_RELATED_PRODUCT_CATEGORY ( 'detail', '', ( #10 ) ) ;
#53 = CC_DESIGN_PERSON_AND_ORGANIZATION_ASSIGNMENT ( #219, #237, ( #48 ) ) ;
#54 = APPROVAL ( #225, 'UNSPECIFIED' ) ;
#55 = CC_DESIGN_PERSON_AND_ORGANIZATION_ASSIGNMENT ( #229, #205, ( #46 ) ) ;
#56 = CC_DESIGN_DATE_AND_TIME_ASSIGNMENT ( #218, #244, ( #59 ) ) ;
#57 = CC_DESIGN_DATE_AND_TIME_ASSIGNMENT ( #203, #230, ( #46 ) ) ;
#58 = APPROVAL ( #232, 'UNSPECIFIED' ) ;
#59 = PRODUCT_DEFINITION ( 'UNKNOWN', '', #48, #45 ) ;
#60 = CC_DESIGN_PERSON_AND_ORGANIZATION_ASSIGNMENT ( #197, #220, ( #59 ) ) ;
#61 = APPROVAL ( #209, 'UNSPECIFIED' ) ;
#62 = CC_DESIGN_PERSON_AND_ORGANIZATION_ASSIGNMENT ( #224, #199, ( #10 ) ) ;
#63 = CC_DESIGN_PERSON_AND_ORGANIZATION_ASSIGNMENT ( #222, #214, ( #48 ) ) ;
#64 = EDGE_CURVE ( 'NONE', #100, #98, #23, .T. ) ;
#65 = ADVANCED_FACE ( 'NONE', ( #183 ), #186, .F. ) ;
#66 = EDGE_CURVE ( 'NONE', #96, #88, #13, .T. ) ;
#67 = LOCAL_TIME ( 10, 40, 25.00000000000000000, #206 ) ;
#68 = APPROVAL_PERSON_ORGANIZATION ( #231, #58, #235 ) ;
#69 = AXIS2_PLACEMENT_3D ( 'NONE', #146, #147, #105 ) ;
#70 = CC_DESIGN_APPROVAL ( #58, ( #46 ) ) ;
#71 = AXIS2_PLACEMENT_3D ( 'NONE', #145, #114, #144 ) ;
#72 = AXIS2_PLACEMENT_3D ( 'NONE', #141, #137, #138 ) ;
#73 = AXIS2_PLACEMENT_3D ( 'NONE', #124, #140, #108 ) ;
#74 = VECTOR ( 'NONE', #115, 1000.000000000000000 ) ;
#75 = CLOSED_SHELL ( 'NONE', ( #65, #5, #6, #7, #8, #9 ) ) ;
#76 = CC_DESIGN_SECURITY_CLASSIFICATION ( #46, ( #48 ) ) ;
#77 = CIRCLE ( 'NONE', #73, 12.50000000000000000 ) ;
#78 = AXIS2_PLACEMENT_3D ( 'NONE', #151, #106, #107 ) ;
#79 =( GEOMETRIC_REPRESENTATION_CONTEXT ( 3 ) GLOBAL_UNCERTAINTY_ASSIGNED_CONTEXT ( ( #43 ) ) GLOBAL_UNIT_ASSIGNED_CONTEXT ( ( #208, #248, #240 ) ) REPRESENTATION_CONTEXT ( 'NONE', 'WORKASPACE' ) );
#80 = VECTOR ( 'NONE', #192, 1000.000000000000000 ) ;
#81 = EDGE_CURVE ( 'NONE', #87, #97, #14, .T. ) ;
#82 = EDGE_CURVE ( 'NONE', #97, #96, #174, .T. ) ;
#83 = ORIENTED_EDGE ( 'NONE', *, *, #66, .F. ) ;
#84 = ORIENTED_EDGE ( 'NONE', *, *, #64, .T. ) ;
#85 = VERTEX_POINT ( 'NONE', #193 ) ;
#86 = ORIENTED_EDGE ( 'NONE', *, *, #41, .F. ) ;
#87 = VERTEX_POINT ( 'NONE', #188 ) ;
#88 = VERTEX_POINT ( 'NONE', #195 ) ;
#89 = ORIENTED_EDGE ( 'NONE', *, *, #18, .F. ) ;
#90 = ORIENTED_EDGE ( 'NONE', *, *, #32, .T. ) ;
#91 = ORIENTED_EDGE ( 'NONE', *, *, #4, .T. ) ;
#92 = ORIENTED_EDGE ( 'NONE', *, *, #66, .T. ) ;
#93 = ORIENTED_EDGE ( 'NONE', *, *, #3, .T. ) ;
#94 = ORIENTED_EDGE ( 'NONE', *, *, #82, .T. ) ;
#95 = ORIENTED_EDGE ( 'NONE', *, *, #81, .T. ) ;
#96 = VERTEX_POINT ( 'NONE', #167 ) ;
#97 = VERTEX_POINT ( 'NONE', #154 ) ;
#98 = VERTEX_POINT ( 'NONE', #247 ) ;
#99 = VERTEX_POINT ( 'NONE', #211 ) ;
#100 = VERTEX_POINT ( 'NONE', #216 ) ;
#101 = ORIENTED_EDGE ( 'NONE', *, *, #82, .F. ) ;
#102 = ORIENTED_EDGE ( 'NONE', *, *, #42, .T. ) ;
#103 = ORIENTED_EDGE ( 'NONE', *, *, #64, .F. ) ;
#104 = ORIENTED_EDGE ( 'NONE', *, *, #81, .F. ) ;
#105 = DIRECTION ( 'NONE',  ( 0.0000000000000000000, -0.0000000000000000000, 1.000000000000000000 ) ) ;
#106 = DIRECTION ( 'NONE',  ( -0.0000000000000000000, -1.000000000000000000, -0.0000000000000000000 ) ) ;
#107 = DIRECTION ( 'NONE',  ( 0.0000000000000000000, 0.0000000000000000000, -1.000000000000000000 ) ) ;
#108 = DIRECTION ( 'NONE',  ( 0.0000000000000000000, 0.0000000000000000000, 1.000000000000000000 ) ) ;
#109 = ORIENTED_EDGE ( 'NONE', *, *, #18, .T. ) ;
#110 = EDGE_LOOP ( 'NONE', ( #120, #122 ) ) ;
#111 = EDGE_LOOP ( 'NONE', ( #104, #118 ) ) ;
#112 = FACE_OUTER_BOUND ( 'NONE', #128, .T. ) ;
#113 = ORIENTED_EDGE ( 'NONE', *, *, #31, .F. ) ;
#114 = DIRECTION ( 'NONE',  ( -0.0000000000000000000, -1.000000000000000000, -0.0000000000000000000 ) ) ;
#115 = DIRECTION ( 'NONE',  ( -0.0000000000000000000, -1.000000000000000000, -0.0000000000000000000 ) ) ;
#116 = ORIENTED_EDGE ( 'NONE', *, *, #31, .T. ) ;
#117 = ORIENTED_EDGE ( 'NONE', *, *, #32, .F. ) ;
#118 = ORIENTED_EDGE ( 'NONE', *, *, #42, .F. ) ;
#119 = ORIENTED_EDGE ( 'NONE', *, *, #4, .F. ) ;
#120 = ORIENTED_EDGE ( 'NONE', *, *, #41, .T. ) ;
#121 = ORIENTED_EDGE ( 'NONE', *, *, #3, .F. ) ;
#122 = ORIENTED_EDGE ( 'NONE', *, *, #17, .T. ) ;
#123 = ORIENTED_EDGE ( 'NONE', *, *, #17, .F. ) ;
#124 = CARTESIAN_POINT ( 'NONE',  ( 0.0000000000000000000, 0.0000000000000000000, 0.0000000000000000000 ) ) ;
#125 = CARTESIAN_POINT ( 'NONE',  ( 0.0000000000000000000, 2.000000000000000000, -12.50000000000000000 ) ) ;
#126 = LINE ( 'NONE', #125, #74 ) ;
#127 = FACE_OUTER_BOUND ( 'NONE', #110, .T. ) ;
#128 = EDGE_LOOP ( 'NONE', ( #101, #102, #91, #83 ) ) ;
#129 = FACE_BOUND ( 'NONE', #111, .T. ) ;
#130 = FACE_OUTER_BOUND ( 'NONE', #134, .T. ) ;
#131 = CYLINDRICAL_SURFACE ( 'NONE', #71, 25.00000000000000000 ) ;
#132 = EDGE_LOOP ( 'NONE', ( #103, #113 ) ) ;
#133 = PLANE ( 'NONE',  #69 ) ;
#134 = EDGE_LOOP ( 'NONE', ( #123, #109, #116, #117 ) ) ;
#135 = EDGE_LOOP ( 'NONE', ( #95, #94, #121, #119 ) ) ;
#136 = FACE_BOUND ( 'NONE', #139, .T. ) ;
#137 = DIRECTION ( 'NONE',  ( 0.0000000000000000000, 1.000000000000000000, 0.0000000000000000000 ) ) ;
#138 = DIRECTION ( 'NONE',  ( 0.0000000000000000000, -0.0000000000000000000, 1.000000000000000000 ) ) ;
#139 = EDGE_LOOP ( 'NONE', ( #93, #92 ) ) ;
#140 = DIRECTION ( 'NONE',  ( 0.0000000000000000000, 1.000000000000000000, 0.0000000000000000000 ) ) ;
#141 = CARTESIAN_POINT ( 'NONE',  ( 0.0000000000000000000, 2.000000000000000000, 0.0000000000000000000 ) ) ;
#142 = FACE_OUTER_BOUND ( 'NONE', #132, .T. ) ;
#143 = PLANE ( 'NONE',  #72 ) ;
#144 = DIRECTION ( 'NONE',  ( 0.0000000000000000000, 0.0000000000000000000, -1.000000000000000000 ) ) ;
#145 = CARTESIAN_POINT ( 'NONE',  ( 0.0000000000000000000, 2.000000000000000000, 0.0000000000000000000 ) ) ;
#146 = CARTESIAN_POINT ( 'NONE',  ( 0.0000000000000000000, 0.0000000000000000000, 0.0000000000000000000 ) ) ;
#147 = DIRECTION ( 'NONE',  ( 0.0000000000000000000, 1.000000000000000000, 0.0000000000000000000 ) ) ;
#148 = EDGE_LOOP ( 'NONE', ( #89, #86, #90, #84 ) ) ;
#149 = FACE_OUTER_BOUND ( 'NONE', #148, .T. ) ;
#150 = CYLINDRICAL_SURFACE ( 'NONE', #78, 25.00000000000000000 ) ;
#151 = CARTESIAN_POINT ( 'NONE',  ( 0.0000000000000000000, 2.000000000000000000, 0.0000000000000000000 ) ) ;
#152 = CARTESIAN_POINT ( 'NONE',  ( 0.0000000000000000000, 2.000000000000000000, 0.0000000000000000000 ) ) ;
#153 = CARTESIAN_POINT ( 'NONE',  ( 0.0000000000000000000, 2.000000000000000000, 0.0000000000000000000 ) ) ;
#154 = CARTESIAN_POINT ( 'NONE',  ( 1.530808498934191500E-015, 2.000000000000000000, 12.50000000000000000 ) ) ;
#155 = DIRECTION ( 'NONE',  ( 0.0000000000000000000, 0.0000000000000000000, 1.000000000000000000 ) ) ;
#156 = DIRECTION ( 'NONE',  ( 0.0000000000000000000, 1.000000000000000000, 0.0000000000000000000 ) ) ;
#157 = DIRECTION ( 'NONE',  ( 0.0000000000000000000, 1.000000000000000000, 0.0000000000000000000 ) ) ;
#158 = CARTESIAN_POINT ( 'NONE',  ( 0.0000000000000000000, 0.0000000000000000000, 0.0000000000000000000 ) ) ;
#159 = CARTESIAN_POINT ( 'NONE',  ( 0.0000000000000000000, 2.000000000000000000, 0.0000000000000000000 ) ) ;
#160 = DIRECTION ( 'NONE',  ( 0.0000000000000000000, 1.000000000000000000, 0.0000000000000000000 ) ) ;
#161 = CARTESIAN_POINT ( 'NONE',  ( 0.0000000000000000000, 0.0000000000000000000, 0.0000000000000000000 ) ) ;
#162 = CARTESIAN_POINT ( 'NONE',  ( 0.0000000000000000000, 0.0000000000000000000, 0.0000000000000000000 ) ) ;
#163 = CARTESIAN_POINT ( 'NONE',  ( 0.0000000000000000000, 2.000000000000000000, 0.0000000000000000000 ) ) ;
#164 = DIRECTION ( 'NONE',  ( 0.0000000000000000000, 1.000000000000000000, 0.0000000000000000000 ) ) ;
#165 = DIRECTION ( 'NONE',  ( 0.0000000000000000000, 0.0000000000000000000, -1.000000000000000000 ) ) ;
#166 = DIRECTION ( 'NONE',  ( 0.0000000000000000000, 1.000000000000000000, 0.0000000000000000000 ) ) ;
#167 = CARTESIAN_POINT ( 'NONE',  ( 1.530808498934191500E-015, 0.0000000000000000000, 12.50000000000000000 ) ) ;
#168 = DIRECTION ( 'NONE',  ( 0.0000000000000000000, 0.0000000000000000000, -1.000000000000000000 ) ) ;
#169 = DIRECTION ( 'NONE',  ( 0.0000000000000000000, 0.0000000000000000000, 1.000000000000000000 ) ) ;
#170 = DIRECTION ( 'NONE',  ( -0.0000000000000000000, -1.000000000000000000, -0.0000000000000000000 ) ) ;
#171 = DIRECTION ( 'NONE',  ( -0.0000000000000000000, -1.000000000000000000, -0.0000000000000000000 ) ) ;
#172 = CARTESIAN_POINT ( 'NONE',  ( 0.0000000000000000000, 2.000000000000000000, 0.0000000000000000000 ) ) ;
#173 = DIRECTION ( 'NONE',  ( 0.0000000000000000000, 1.000000000000000000, 0.0000000000000000000 ) ) ;
#174 = LINE ( 'NONE', #189, #80 ) ;
#175 = DIRECTION ( 'NONE',  ( 0.0000000000000000000, 0.0000000000000000000, 1.000000000000000000 ) ) ;
#176 = LINE ( 'NONE', #178, #30 ) ;
#177 = LINE ( 'NONE', #179, #26 ) ;
#178 = CARTESIAN_POINT ( 'NONE',  ( 0.0000000000000000000, 2.000000000000000000, -25.00000000000000000 ) ) ;
#179 = CARTESIAN_POINT ( 'NONE',  ( 3.061616997868383000E-015, 2.000000000000000000, 25.00000000000000000 ) ) ;
#180 = DIRECTION ( 'NONE',  ( -0.0000000000000000000, -1.000000000000000000, -0.0000000000000000000 ) ) ;
#181 = CARTESIAN_POINT ( 'NONE',  ( 0.0000000000000000000, 2.000000000000000000, 0.0000000000000000000 ) ) ;
#182 = DIRECTION ( 'NONE',  ( 0.0000000000000000000, 0.0000000000000000000, 1.000000000000000000 ) ) ;
#183 = FACE_OUTER_BOUND ( 'NONE', #135, .T. ) ;
#184 = CYLINDRICAL_SURFACE ( 'NONE', #21, 12.50000000000000000 ) ;
#185 = DIRECTION ( 'NONE',  ( 0.0000000000000000000, 0.0000000000000000000, 1.000000000000000000 ) ) ;
#186 = CYLINDRICAL_SURFACE ( 'NONE', #12, 12.50000000000000000 ) ;
#187 = DIRECTION ( 'NONE',  ( 0.0000000000000000000, 1.000000000000000000, 0.0000000000000000000 ) ) ;
#188 = CARTESIAN_POINT ( 'NONE',  ( 0.0000000000000000000, 2.000000000000000000, -12.50000000000000000 ) ) ;
#189 = CARTESIAN_POINT ( 'NONE',  ( 1.530808498934191500E-015, 2.000000000000000000, 12.50000000000000000 ) ) ;
#190 = DIRECTION ( 'NONE',  ( 0.0000000000000000000, 0.0000000000000000000, 1.000000000000000000 ) ) ;
#191 = DIRECTION ( 'NONE',  ( -0.0000000000000000000, -1.000000000000000000, -0.0000000000000000000 ) ) ;
#192 = DIRECTION ( 'NONE',  ( -0.0000000000000000000, -1.000000000000000000, -0.0000000000000000000 ) ) ;
#193 = CARTESIAN_POINT ( 'NONE',  ( 3.061616997868383000E-015, 2.000000000000000000, 25.00000000000000000 ) ) ;
#194 = DIRECTION ( 'NONE',  ( 0.0000000000000000000, 0.0000000000000000000, 1.000000000000000000 ) ) ;
#195 = CARTESIAN_POINT ( 'NONE',  ( 0.0000000000000000000, 0.0000000000000000000, -12.50000000000000000 ) ) ;
#196 = CARTESIAN_POINT ( 'NONE',  ( 0.0000000000000000000, 0.0000000000000000000, 0.0000000000000000000 ) ) ;
#197 = PERSON_AND_ORGANIZATION ( #34, #39 ) ;
#198 = APPROVAL_DATE_TIME ( #228, #61 ) ;
#199 = PERSON_AND_ORGANIZATION_ROLE ( 'design_owner' ) ;
#200 = APPLICATION_PROTOCOL_DEFINITION ( 'international standard', 'config_control_design', 1994, #2 ) ;
#201 = CALENDAR_DATE ( 2017, 14, 11 ) ;
#202 = PERSON_AND_ORGANIZATION ( #34, #39 ) ;
#203 = DATE_AND_TIME ( #201, #47 ) ;
#204 = COORDINATED_UNIVERSAL_TIME_OFFSET ( 8, 0, .AHEAD. ) ;
#205 = PERSON_AND_ORGANIZATION_ROLE ( 'classification_officer' ) ;
#206 = COORDINATED_UNIVERSAL_TIME_OFFSET ( 8, 0, .AHEAD. ) ;
#207 = DIRECTION ( 'NONE',  ( 0.0000000000000000000, 0.0000000000000000000, 1.000000000000000000 ) ) ;
#208 =( LENGTH_UNIT ( ) NAMED_UNIT ( * ) SI_UNIT ( .MILLI., .METRE. ) );
#209 = APPROVAL_STATUS ( 'not_yet_approved' ) ;
#210 = DIRECTION ( 'NONE',  ( 1.000000000000000000, 0.0000000000000000000, 0.0000000000000000000 ) ) ;
#211 = CARTESIAN_POINT ( 'NONE',  ( 0.0000000000000000000, 2.000000000000000000, -25.00000000000000000 ) ) ;
#212 = PERSON_AND_ORGANIZATION ( #34, #39 ) ;
#213 = COORDINATED_UNIVERSAL_TIME_OFFSET ( 8, 0, .AHEAD. ) ;
#214 = PERSON_AND_ORGANIZATION_ROLE ( 'design_supplier' ) ;
#215 = APPROVAL_DATE_TIME ( #245, #58 ) ;
#216 = CARTESIAN_POINT ( 'NONE',  ( 0.0000000000000000000, 0.0000000000000000000, -25.00000000000000000 ) ) ;
#217 = COORDINATED_UNIVERSAL_TIME_OFFSET ( 8, 0, .AHEAD. ) ;
#218 = DATE_AND_TIME ( #246, #38 ) ;
#219 = PERSON_AND_ORGANIZATION ( #34, #39 ) ;
#220 = PERSON_AND_ORGANIZATION_ROLE ( 'creator' ) ;
#221 = CALENDAR_DATE ( 2017, 14, 11 ) ;
#222 = PERSON_AND_ORGANIZATION ( #34, #39 ) ;
#223 = SECURITY_CLASSIFICATION_LEVEL ( 'unclassified' ) ;
#224 = PERSON_AND_ORGANIZATION ( #34, #39 ) ;
#225 = APPROVAL_STATUS ( 'not_yet_approved' ) ;
#226 = APPLICATION_PROTOCOL_DEFINITION ( 'international standard', 'config_control_design', 1994, #1 ) ;
#227 = APPROVAL_ROLE ( '' ) ;
#228 = DATE_AND_TIME ( #234, #40 ) ;
#229 = PERSON_AND_ORGANIZATION ( #34, #39 ) ;
#230 = DATE_TIME_ROLE ( 'classification_date' ) ;
#231 = PERSON_AND_ORGANIZATION ( #34, #39 ) ;
#232 = APPROVAL_STATUS ( 'not_yet_approved' ) ;
#233 = APPROVAL_DATE_TIME ( #239, #54 ) ;
#234 = CALENDAR_DATE ( 2017, 14, 11 ) ;
#235 = APPROVAL_ROLE ( '' ) ;
#236 = COORDINATED_UNIVERSAL_TIME_OFFSET ( 8, 0, .AHEAD. ) ;
#237 = PERSON_AND_ORGANIZATION_ROLE ( 'creator' ) ;
#238 = CALENDAR_DATE ( 2017, 14, 11 ) ;
#239 = DATE_AND_TIME ( #221, #50 ) ;
#240 =( NAMED_UNIT ( * ) SI_UNIT ( $, .STERADIAN. ) SOLID_ANGLE_UNIT ( ) );
#241 = SHAPE_DEFINITION_REPRESENTATION ( #44, #33 ) ;
#242 = APPROVAL_ROLE ( '' ) ;
#243 = MECHANICAL_CONTEXT ( 'NONE', #2, 'mechanical' ) ;
#244 = DATE_TIME_ROLE ( 'creation_date' ) ;
#245 = DATE_AND_TIME ( #238, #67 ) ;
#246 = CALENDAR_DATE ( 2017, 14, 11 ) ;
#247 = CARTESIAN_POINT ( 'NONE',  ( 3.061616997868383000E-015, 0.0000000000000000000, 25.00000000000000000 ) ) ;
#248 =( NAMED_UNIT ( * ) PLANE_ANGLE_UNIT ( ) SI_UNIT ( $, .RADIAN. ) );
#249 = MANIFOLD_SOLID_BREP ( 'Boss-Extrude1', #75 ) ;
ENDSEC;
END-ISO-10303-21;
