ISO-10303-21;
HEADER;
FILE_DESCRIPTION (( 'STEP AP203' ),
    '1' );
FILE_NAME ('DF-QRL3-042018.STEP',
    '2017-11-14T02:35:52',
    ( '' ),
    ( '' ),
    'SwSTEP 2.0',
    'SolidWorks 2011',
    '' );
FILE_SCHEMA (( 'CONFIG_CONTROL_DESIGN' ));
ENDSEC;

DATA;
#1 = APPLICATION_CONTEXT ( 'configuration controlled 3d designs of mechanical parts and assemblies' ) ;
#2 = APPLICATION_CONTEXT ( 'configuration controlled 3d designs of mechanical parts and assemblies' ) ;
#3 = MANIFOLD_SOLID_BREP ( 'Boss-Extrude1', #246 ) ;
#4 = PRODUCT_RELATED_PRODUCT_CATEGORY ( 'detail', '', ( #68 ) ) ;
#5 = APPROVAL ( #219, 'UNSPECIFIED' ) ;
#6 = CC_DESIGN_PERSON_AND_ORGANIZATION_ASSIGNMENT ( #222, #211, ( #56 ) ) ;
#7 = CC_DESIGN_PERSON_AND_ORGANIZATION_ASSIGNMENT ( #210, #226, ( #56 ) ) ;
#8 = APPROVAL ( #234, 'UNSPECIFIED' ) ;
#9 = CC_DESIGN_PERSON_AND_ORGANIZATION_ASSIGNMENT ( #212, #225, ( #66 ) ) ;
#10 = CC_DESIGN_DATE_AND_TIME_ASSIGNMENT ( #230, #217, ( #66 ) ) ;
#11 = EDGE_CURVE ( 'NONE', #76, #83, #243, .T. ) ;
#12 = EDGE_CURVE ( 'NONE', #69, #72, #103, .T. ) ;
#13 = EDGE_CURVE ( 'NONE', #83, #76, #241, .T. ) ;
#14 = EDGE_CURVE ( 'NONE', #69, #101, #239, .T. ) ;
#15 = EDGE_CURVE ( 'NONE', #76, #70, #133, .T. ) ;
#16 = APPROVAL ( #196, 'UNSPECIFIED' ) ;
#17 = CC_DESIGN_PERSON_AND_ORGANIZATION_ASSIGNMENT ( #168, #209, ( #28 ) ) ;
#18 = CC_DESIGN_DATE_AND_TIME_ASSIGNMENT ( #221, #213, ( #28 ) ) ;
#19 = EDGE_CURVE ( 'NONE', #72, #93, #236, .T. ) ;
#20 = ADVANCED_FACE ( 'NONE', ( #144 ), #118, .T. ) ;
#21 = ADVANCED_FACE ( 'NONE', ( #143, #148 ), #138, .T. ) ;
#22 = ADVANCED_FACE ( 'NONE', ( #119, #140 ), #128, .F. ) ;
#23 = ADVANCED_FACE ( 'NONE', ( #113 ), #135, .F. ) ;
#24 = EDGE_CURVE ( 'NONE', #101, #93, #130, .T. ) ;
#25 = EDGE_CURVE ( 'NONE', #93, #72, #46, .T. ) ;
#26 = EDGE_CURVE ( 'NONE', #84, #70, #39, .T. ) ;
#27 = CC_DESIGN_PERSON_AND_ORGANIZATION_ASSIGNMENT ( #195, #191, ( #68 ) ) ;
#28 = PRODUCT_DEFINITION ( 'UNKNOWN', '', #56, #247 ) ;
#29 = ADVANCED_FACE ( 'NONE', ( #115 ), #131, .F. ) ;
#30 = EDGE_CURVE ( 'NONE', #101, #69, #58, .T. ) ;
#31 = EDGE_CURVE ( 'NONE', #70, #84, #48, .T. ) ;
#32 = ADVANCED_FACE ( 'NONE', ( #160 ), #180, .T. ) ;
#33 = EDGE_CURVE ( 'NONE', #83, #84, #182, .T. ) ;
#34 = ADVANCED_BREP_SHAPE_REPRESENTATION ( 'DF-QRL3-042018', ( #3, #41 ), #52 ) ;
#35 = PERSON ( 'UNSPECIFIED', 'UNSPECIFIED', 'UNSPECIFIED', ('UNSPECIFIED'), ('UNSPECIFIED'), ('UNSPECIFIED') ) ;
#36 = CC_DESIGN_SECURITY_CLASSIFICATION ( #66, ( #56 ) ) ;
#37 = AXIS2_PLACEMENT_3D ( 'NONE', #173, #174, #179 ) ;
#38 = CC_DESIGN_APPROVAL ( #5, ( #56 ) ) ;
#39 = CIRCLE ( 'NONE', #59, 7.000000000000000000 ) ;
#40 = AXIS2_PLACEMENT_3D ( 'NONE', #154, #149, #114 ) ;
#41 = AXIS2_PLACEMENT_3D ( 'NONE', #186, #187, #188 ) ;
#42 = CC_DESIGN_APPROVAL ( #8, ( #66 ) ) ;
#43 = VECTOR ( 'NONE', #169, 1000.000000000000000 ) ;
#44 = AXIS2_PLACEMENT_3D ( 'NONE', #117, #120, #139 ) ;
#45 = AXIS2_PLACEMENT_3D ( 'NONE', #157, #171, #178 ) ;
#46 = CIRCLE ( 'NONE', #60, 21.00000000000000000 ) ;
#47 = LOCAL_TIME ( 10, 35, 52.00000000000000000, #163 ) ;
#48 = CIRCLE ( 'NONE', #37, 7.000000000000000000 ) ;
#49 = LOCAL_TIME ( 10, 35, 52.00000000000000000, #223 ) ;
#50 = APPROVAL_PERSON_ORGANIZATION ( #207, #8, #224 ) ;
#51 = AXIS2_PLACEMENT_3D ( 'NONE', #150, #151, #142 ) ;
#52 =( GEOMETRIC_REPRESENTATION_CONTEXT ( 3 ) GLOBAL_UNCERTAINTY_ASSIGNED_CONTEXT ( ( #248 ) ) GLOBAL_UNIT_ASSIGNED_CONTEXT ( ( #161, #162, #164 ) ) REPRESENTATION_CONTEXT ( 'NONE', 'WORKASPACE' ) );
#53 = APPROVAL_PERSON_ORGANIZATION ( #232, #5, #215 ) ;
#54 = LOCAL_TIME ( 10, 35, 52.00000000000000000, #214 ) ;
#55 = CC_DESIGN_APPROVAL ( #16, ( #28 ) ) ;
#56 = PRODUCT_DEFINITION_FORMATION_WITH_SPECIFIED_SOURCE ( 'ANY', '', #68, .NOT_KNOWN. ) ;
#57 = AXIS2_PLACEMENT_3D ( 'NONE', #203, #202, #175 ) ;
#58 = CIRCLE ( 'NONE', #61, 21.00000000000000000 ) ;
#59 = AXIS2_PLACEMENT_3D ( 'NONE', #134, #141, #177 ) ;
#60 = AXIS2_PLACEMENT_3D ( 'NONE', #123, #124, #127 ) ;
#61 = AXIS2_PLACEMENT_3D ( 'NONE', #176, #197, #189 ) ;
#62 = VECTOR ( 'NONE', #126, 1000.000000000000000 ) ;
#63 = APPROVAL_PERSON_ORGANIZATION ( #193, #16, #172 ) ;
#64 = LOCAL_TIME ( 10, 35, 52.00000000000000000, #208 ) ;
#65 = LOCAL_TIME ( 10, 35, 52.00000000000000000, #216 ) ;
#66 = SECURITY_CLASSIFICATION ( '', '', #205 ) ;
#67 = ORGANIZATION ( 'UNSPECIFIED', 'UNSPECIFIED', '' ) ;
#68 = PRODUCT ( 'DF-QRL3-042018', 'DF-QRL3-042018', '', ( #170 ) ) ;
#69 = VERTEX_POINT ( 'NONE', #194 ) ;
#70 = VERTEX_POINT ( 'NONE', #200 ) ;
#71 = ORIENTED_EDGE ( 'NONE', *, *, #30, .F. ) ;
#72 = VERTEX_POINT ( 'NONE', #181 ) ;
#73 = ORIENTED_EDGE ( 'NONE', *, *, #30, .T. ) ;
#74 = ORIENTED_EDGE ( 'NONE', *, *, #24, .F. ) ;
#75 = ORIENTED_EDGE ( 'NONE', *, *, #31, .T. ) ;
#76 = VERTEX_POINT ( 'NONE', #183 ) ;
#77 = ORIENTED_EDGE ( 'NONE', *, *, #12, .F. ) ;
#78 = ORIENTED_EDGE ( 'NONE', *, *, #11, .F. ) ;
#79 = ORIENTED_EDGE ( 'NONE', *, *, #11, .T. ) ;
#80 = ORIENTED_EDGE ( 'NONE', *, *, #15, .T. ) ;
#81 = ORIENTED_EDGE ( 'NONE', *, *, #31, .F. ) ;
#82 = ORIENTED_EDGE ( 'NONE', *, *, #13, .T. ) ;
#83 = VERTEX_POINT ( 'NONE', #184 ) ;
#84 = VERTEX_POINT ( 'NONE', #201 ) ;
#85 = ORIENTED_EDGE ( 'NONE', *, *, #25, .T. ) ;
#86 = ORIENTED_EDGE ( 'NONE', *, *, #14, .T. ) ;
#87 = ORIENTED_EDGE ( 'NONE', *, *, #26, .T. ) ;
#88 = ORIENTED_EDGE ( 'NONE', *, *, #33, .T. ) ;
#89 = ORIENTED_EDGE ( 'NONE', *, *, #25, .F. ) ;
#90 = ORIENTED_EDGE ( 'NONE', *, *, #26, .F. ) ;
#91 = ORIENTED_EDGE ( 'NONE', *, *, #15, .F. ) ;
#92 = ORIENTED_EDGE ( 'NONE', *, *, #12, .T. ) ;
#93 = VERTEX_POINT ( 'NONE', #190 ) ;
#94 = ORIENTED_EDGE ( 'NONE', *, *, #14, .F. ) ;
#95 = ORIENTED_EDGE ( 'NONE', *, *, #13, .F. ) ;
#96 = EDGE_LOOP ( 'NONE', ( #95, #78 ) ) ;
#97 = EDGE_LOOP ( 'NONE', ( #91, #79, #88, #81 ) ) ;
#98 = EDGE_LOOP ( 'NONE', ( #86, #73 ) ) ;
#99 = ORIENTED_EDGE ( 'NONE', *, *, #24, .T. ) ;
#100 = EDGE_LOOP ( 'NONE', ( #107, #89 ) ) ;
#101 = VERTEX_POINT ( 'NONE', #204 ) ;
#102 = EDGE_LOOP ( 'NONE', ( #82, #80, #90, #110 ) ) ;
#103 = LINE ( 'NONE', #105, #235 ) ;
#104 = CARTESIAN_POINT ( 'NONE',  ( 0.0000000000000000000, 2.000000000000000000, 0.0000000000000000000 ) ) ;
#105 = CARTESIAN_POINT ( 'NONE',  ( 0.0000000000000000000, 2.000000000000000000, -21.00000000000000000 ) ) ;
#106 = ORIENTED_EDGE ( 'NONE', *, *, #19, .T. ) ;
#107 = ORIENTED_EDGE ( 'NONE', *, *, #19, .F. ) ;
#108 = EDGE_LOOP ( 'NONE', ( #87, #75 ) ) ;
#109 = EDGE_LOOP ( 'NONE', ( #74, #94, #92, #106 ) ) ;
#110 = ORIENTED_EDGE ( 'NONE', *, *, #33, .F. ) ;
#111 = EDGE_LOOP ( 'NONE', ( #71, #99, #85, #77 ) ) ;
#112 = DIRECTION ( 'NONE',  ( 0.0000000000000000000, 0.0000000000000000000, 1.000000000000000000 ) ) ;
#113 = FACE_OUTER_BOUND ( 'NONE', #102, .T. ) ;
#114 = DIRECTION ( 'NONE',  ( 0.0000000000000000000, -0.0000000000000000000, 1.000000000000000000 ) ) ;
#115 = FACE_OUTER_BOUND ( 'NONE', #97, .T. ) ;
#116 = CARTESIAN_POINT ( 'NONE',  ( 2.571758278209441700E-015, 2.000000000000000000, 21.00000000000000000 ) ) ;
#117 = CARTESIAN_POINT ( 'NONE',  ( 0.0000000000000000000, 2.000000000000000000, 0.0000000000000000000 ) ) ;
#118 = CYLINDRICAL_SURFACE ( 'NONE', #245, 21.00000000000000000 ) ;
#119 = FACE_OUTER_BOUND ( 'NONE', #100, .T. ) ;
#120 = DIRECTION ( 'NONE',  ( -0.0000000000000000000, -1.000000000000000000, -0.0000000000000000000 ) ) ;
#121 = DIRECTION ( 'NONE',  ( 0.0000000000000000000, 1.000000000000000000, 0.0000000000000000000 ) ) ;
#122 = DIRECTION ( 'NONE',  ( -0.0000000000000000000, -1.000000000000000000, -0.0000000000000000000 ) ) ;
#123 = CARTESIAN_POINT ( 'NONE',  ( 0.0000000000000000000, 0.0000000000000000000, 0.0000000000000000000 ) ) ;
#124 = DIRECTION ( 'NONE',  ( 0.0000000000000000000, 1.000000000000000000, 0.0000000000000000000 ) ) ;
#125 = DIRECTION ( 'NONE',  ( 0.0000000000000000000, 0.0000000000000000000, 1.000000000000000000 ) ) ;
#126 = DIRECTION ( 'NONE',  ( -0.0000000000000000000, -1.000000000000000000, -0.0000000000000000000 ) ) ;
#127 = DIRECTION ( 'NONE',  ( 0.0000000000000000000, 0.0000000000000000000, 1.000000000000000000 ) ) ;
#128 = PLANE ( 'NONE',  #51 ) ;
#129 = CARTESIAN_POINT ( 'NONE',  ( 8.572527594031473200E-016, 2.000000000000000000, 7.000000000000000000 ) ) ;
#130 = LINE ( 'NONE', #116, #62 ) ;
#131 = CYLINDRICAL_SURFACE ( 'NONE', #45, 7.000000000000000000 ) ;
#132 = DIRECTION ( 'NONE',  ( 0.0000000000000000000, 1.000000000000000000, 0.0000000000000000000 ) ) ;
#133 = LINE ( 'NONE', #129, #238 ) ;
#134 = CARTESIAN_POINT ( 'NONE',  ( 0.0000000000000000000, 0.0000000000000000000, 0.0000000000000000000 ) ) ;
#135 = CYLINDRICAL_SURFACE ( 'NONE', #44, 7.000000000000000000 ) ;
#136 = DIRECTION ( 'NONE',  ( 0.0000000000000000000, 1.000000000000000000, 0.0000000000000000000 ) ) ;
#137 = CARTESIAN_POINT ( 'NONE',  ( 0.0000000000000000000, 0.0000000000000000000, 0.0000000000000000000 ) ) ;
#138 = PLANE ( 'NONE',  #40 ) ;
#139 = DIRECTION ( 'NONE',  ( 0.0000000000000000000, 0.0000000000000000000, -1.000000000000000000 ) ) ;
#140 = FACE_BOUND ( 'NONE', #108, .T. ) ;
#141 = DIRECTION ( 'NONE',  ( 0.0000000000000000000, 1.000000000000000000, 0.0000000000000000000 ) ) ;
#142 = DIRECTION ( 'NONE',  ( 0.0000000000000000000, -0.0000000000000000000, 1.000000000000000000 ) ) ;
#143 = FACE_OUTER_BOUND ( 'NONE', #98, .T. ) ;
#144 = FACE_OUTER_BOUND ( 'NONE', #111, .T. ) ;
#145 = CARTESIAN_POINT ( 'NONE',  ( 0.0000000000000000000, 2.000000000000000000, 0.0000000000000000000 ) ) ;
#146 = CARTESIAN_POINT ( 'NONE',  ( 0.0000000000000000000, 2.000000000000000000, 0.0000000000000000000 ) ) ;
#147 = DIRECTION ( 'NONE',  ( 0.0000000000000000000, 1.000000000000000000, 0.0000000000000000000 ) ) ;
#148 = FACE_BOUND ( 'NONE', #96, .T. ) ;
#149 = DIRECTION ( 'NONE',  ( 0.0000000000000000000, 1.000000000000000000, 0.0000000000000000000 ) ) ;
#150 = CARTESIAN_POINT ( 'NONE',  ( 0.0000000000000000000, 0.0000000000000000000, 0.0000000000000000000 ) ) ;
#151 = DIRECTION ( 'NONE',  ( 0.0000000000000000000, 1.000000000000000000, 0.0000000000000000000 ) ) ;
#152 = DIRECTION ( 'NONE',  ( 0.0000000000000000000, 0.0000000000000000000, 1.000000000000000000 ) ) ;
#153 = DIRECTION ( 'NONE',  ( 0.0000000000000000000, 0.0000000000000000000, -1.000000000000000000 ) ) ;
#154 = CARTESIAN_POINT ( 'NONE',  ( 0.0000000000000000000, 2.000000000000000000, 0.0000000000000000000 ) ) ;
#155 = DIRECTION ( 'NONE',  ( 0.0000000000000000000, 0.0000000000000000000, 1.000000000000000000 ) ) ;
#156 = DIRECTION ( 'NONE',  ( -0.0000000000000000000, -1.000000000000000000, -0.0000000000000000000 ) ) ;
#157 = CARTESIAN_POINT ( 'NONE',  ( 0.0000000000000000000, 2.000000000000000000, 0.0000000000000000000 ) ) ;
#158 = DIRECTION ( 'NONE',  ( -0.0000000000000000000, -1.000000000000000000, -0.0000000000000000000 ) ) ;
#159 = CARTESIAN_POINT ( 'NONE',  ( 0.0000000000000000000, 2.000000000000000000, 0.0000000000000000000 ) ) ;
#160 = FACE_OUTER_BOUND ( 'NONE', #109, .T. ) ;
#161 =( LENGTH_UNIT ( ) NAMED_UNIT ( * ) SI_UNIT ( .MILLI., .METRE. ) );
#162 =( NAMED_UNIT ( * ) PLANE_ANGLE_UNIT ( ) SI_UNIT ( $, .RADIAN. ) );
#163 = COORDINATED_UNIVERSAL_TIME_OFFSET ( 8, 0, .AHEAD. ) ;
#164 =( NAMED_UNIT ( * ) SI_UNIT ( $, .STERADIAN. ) SOLID_ANGLE_UNIT ( ) );
#165 = CALENDAR_DATE ( 2017, 14, 11 ) ;
#166 = DATE_AND_TIME ( #165, #47 ) ;
#167 = APPROVAL_DATE_TIME ( #166, #16 ) ;
#168 = PERSON_AND_ORGANIZATION ( #35, #67 ) ;
#169 = DIRECTION ( 'NONE',  ( -0.0000000000000000000, -1.000000000000000000, -0.0000000000000000000 ) ) ;
#170 = MECHANICAL_CONTEXT ( 'NONE', #1, 'mechanical' ) ;
#171 = DIRECTION ( 'NONE',  ( -0.0000000000000000000, -1.000000000000000000, -0.0000000000000000000 ) ) ;
#172 = APPROVAL_ROLE ( '' ) ;
#173 = CARTESIAN_POINT ( 'NONE',  ( 0.0000000000000000000, 0.0000000000000000000, 0.0000000000000000000 ) ) ;
#174 = DIRECTION ( 'NONE',  ( 0.0000000000000000000, 1.000000000000000000, 0.0000000000000000000 ) ) ;
#175 = DIRECTION ( 'NONE',  ( 0.0000000000000000000, 0.0000000000000000000, -1.000000000000000000 ) ) ;
#176 = CARTESIAN_POINT ( 'NONE',  ( 0.0000000000000000000, 2.000000000000000000, 0.0000000000000000000 ) ) ;
#177 = DIRECTION ( 'NONE',  ( 0.0000000000000000000, 0.0000000000000000000, 1.000000000000000000 ) ) ;
#178 = DIRECTION ( 'NONE',  ( 0.0000000000000000000, 0.0000000000000000000, -1.000000000000000000 ) ) ;
#179 = DIRECTION ( 'NONE',  ( 0.0000000000000000000, 0.0000000000000000000, 1.000000000000000000 ) ) ;
#180 = CYLINDRICAL_SURFACE ( 'NONE', #57, 21.00000000000000000 ) ;
#181 = CARTESIAN_POINT ( 'NONE',  ( 0.0000000000000000000, 0.0000000000000000000, -21.00000000000000000 ) ) ;
#182 = LINE ( 'NONE', #185, #43 ) ;
#183 = CARTESIAN_POINT ( 'NONE',  ( 8.572527594031473200E-016, 2.000000000000000000, 7.000000000000000000 ) ) ;
#184 = CARTESIAN_POINT ( 'NONE',  ( 0.0000000000000000000, 2.000000000000000000, -7.000000000000000000 ) ) ;
#185 = CARTESIAN_POINT ( 'NONE',  ( 0.0000000000000000000, 2.000000000000000000, -7.000000000000000000 ) ) ;
#186 = CARTESIAN_POINT ( 'NONE',  ( 0.0000000000000000000, 0.0000000000000000000, 0.0000000000000000000 ) ) ;
#187 = DIRECTION ( 'NONE',  ( 0.0000000000000000000, 0.0000000000000000000, 1.000000000000000000 ) ) ;
#188 = DIRECTION ( 'NONE',  ( 1.000000000000000000, 0.0000000000000000000, 0.0000000000000000000 ) ) ;
#189 = DIRECTION ( 'NONE',  ( 0.0000000000000000000, 0.0000000000000000000, 1.000000000000000000 ) ) ;
#190 = CARTESIAN_POINT ( 'NONE',  ( 2.571758278209441700E-015, 0.0000000000000000000, 21.00000000000000000 ) ) ;
#191 = PERSON_AND_ORGANIZATION_ROLE ( 'design_owner' ) ;
#192 = APPLICATION_PROTOCOL_DEFINITION ( 'international standard', 'config_control_design', 1994, #2 ) ;
#193 = PERSON_AND_ORGANIZATION ( #35, #67 ) ;
#194 = CARTESIAN_POINT ( 'NONE',  ( 0.0000000000000000000, 2.000000000000000000, -21.00000000000000000 ) ) ;
#195 = PERSON_AND_ORGANIZATION ( #35, #67 ) ;
#196 = APPROVAL_STATUS ( 'not_yet_approved' ) ;
#197 = DIRECTION ( 'NONE',  ( 0.0000000000000000000, 1.000000000000000000, 0.0000000000000000000 ) ) ;
#198 = APPLICATION_PROTOCOL_DEFINITION ( 'international standard', 'config_control_design', 1994, #1 ) ;
#199 = SHAPE_DEFINITION_REPRESENTATION ( #249, #34 ) ;
#200 = CARTESIAN_POINT ( 'NONE',  ( 8.572527594031473200E-016, 0.0000000000000000000, 7.000000000000000000 ) ) ;
#201 = CARTESIAN_POINT ( 'NONE',  ( 0.0000000000000000000, 0.0000000000000000000, -7.000000000000000000 ) ) ;
#202 = DIRECTION ( 'NONE',  ( -0.0000000000000000000, -1.000000000000000000, -0.0000000000000000000 ) ) ;
#203 = CARTESIAN_POINT ( 'NONE',  ( 0.0000000000000000000, 2.000000000000000000, 0.0000000000000000000 ) ) ;
#204 = CARTESIAN_POINT ( 'NONE',  ( 2.571758278209441700E-015, 2.000000000000000000, 21.00000000000000000 ) ) ;
#205 = SECURITY_CLASSIFICATION_LEVEL ( 'unclassified' ) ;
#206 = CALENDAR_DATE ( 2017, 14, 11 ) ;
#207 = PERSON_AND_ORGANIZATION ( #35, #67 ) ;
#208 = COORDINATED_UNIVERSAL_TIME_OFFSET ( 8, 0, .AHEAD. ) ;
#209 = PERSON_AND_ORGANIZATION_ROLE ( 'creator' ) ;
#210 = PERSON_AND_ORGANIZATION ( #35, #67 ) ;
#211 = PERSON_AND_ORGANIZATION_ROLE ( 'creator' ) ;
#212 = PERSON_AND_ORGANIZATION ( #35, #67 ) ;
#213 = DATE_TIME_ROLE ( 'creation_date' ) ;
#214 = COORDINATED_UNIVERSAL_TIME_OFFSET ( 8, 0, .AHEAD. ) ;
#215 = APPROVAL_ROLE ( '' ) ;
#216 = COORDINATED_UNIVERSAL_TIME_OFFSET ( 8, 0, .AHEAD. ) ;
#217 = DATE_TIME_ROLE ( 'classification_date' ) ;
#218 = CALENDAR_DATE ( 2017, 14, 11 ) ;
#219 = APPROVAL_STATUS ( 'not_yet_approved' ) ;
#220 = CALENDAR_DATE ( 2017, 14, 11 ) ;
#221 = DATE_AND_TIME ( #220, #64 ) ;
#222 = PERSON_AND_ORGANIZATION ( #35, #67 ) ;
#223 = COORDINATED_UNIVERSAL_TIME_OFFSET ( 8, 0, .AHEAD. ) ;
#224 = APPROVAL_ROLE ( '' ) ;
#225 = PERSON_AND_ORGANIZATION_ROLE ( 'classification_officer' ) ;
#226 = PERSON_AND_ORGANIZATION_ROLE ( 'design_supplier' ) ;
#227 = CALENDAR_DATE ( 2017, 14, 11 ) ;
#228 = APPROVAL_DATE_TIME ( #231, #8 ) ;
#229 = APPROVAL_DATE_TIME ( #233, #5 ) ;
#230 = DATE_AND_TIME ( #206, #49 ) ;
#231 = DATE_AND_TIME ( #227, #54 ) ;
#232 = PERSON_AND_ORGANIZATION ( #35, #67 ) ;
#233 = DATE_AND_TIME ( #218, #65 ) ;
#234 = APPROVAL_STATUS ( 'not_yet_approved' ) ;
#235 = VECTOR ( 'NONE', #158, 1000.000000000000000 ) ;
#236 = CIRCLE ( 'NONE', #244, 21.00000000000000000 ) ;
#237 = AXIS2_PLACEMENT_3D ( 'NONE', #145, #121, #112 ) ;
#238 = VECTOR ( 'NONE', #122, 1000.000000000000000 ) ;
#239 = CIRCLE ( 'NONE', #240, 21.00000000000000000 ) ;
#240 = AXIS2_PLACEMENT_3D ( 'NONE', #159, #136, #152 ) ;
#241 = CIRCLE ( 'NONE', #237, 7.000000000000000000 ) ;
#242 = AXIS2_PLACEMENT_3D ( 'NONE', #104, #132, #125 ) ;
#243 = CIRCLE ( 'NONE', #242, 7.000000000000000000 ) ;
#244 = AXIS2_PLACEMENT_3D ( 'NONE', #137, #147, #155 ) ;
#245 = AXIS2_PLACEMENT_3D ( 'NONE', #146, #156, #153 ) ;
#246 = CLOSED_SHELL ( 'NONE', ( #23, #20, #21, #22, #32, #29 ) ) ;
#247 = DESIGN_CONTEXT ( 'detailed design', #2, 'design' ) ;
#248 = UNCERTAINTY_MEASURE_WITH_UNIT (LENGTH_MEASURE( 1.000000000000000100E-005 ), #161, 'distance_accuracy_value', 'NONE');
#249 = PRODUCT_DEFINITION_SHAPE ( 'NONE', 'NONE',  #28 ) ;
ENDSEC;
END-ISO-10303-21;
