ISO-10303-21;
HEADER;
FILE_DESCRIPTION (( 'STEP AP203' ),
    '1' );
FILE_NAME ('DF-QRL3-032010.STEP',
    '2017-11-14T02:30:36',
    ( '' ),
    ( '' ),
    'SwSTEP 2.0',
    'SolidWorks 2011',
    '' );
FILE_SCHEMA (( 'CONFIG_CONTROL_DESIGN' ));
ENDSEC;

DATA;
#1 = APPLICATION_CONTEXT ( 'configuration controlled 3d designs of mechanical parts and assemblies' ) ;
#2 = APPLICATION_CONTEXT ( 'configuration controlled 3d designs of mechanical parts and assemblies' ) ;
#3 = ADVANCED_BREP_SHAPE_REPRESENTATION ( 'DF-QRL3-032010', ( #204, #230 ), #232 ) ;
#4 = PERSON ( 'UNSPECIFIED', 'UNSPECIFIED', 'UNSPECIFIED', ('UNSPECIFIED'), ('UNSPECIFIED'), ('UNSPECIFIED') ) ;
#5 = PRODUCT ( 'DF-QRL3-032010', 'DF-QRL3-032010', '', ( #146 ) ) ;
#6 = ADVANCED_FACE ( 'NONE', ( #80 ), #43, .T. ) ;
#7 = EDGE_CURVE ( 'NONE', #179, #198, #208, .T. ) ;
#8 = EDGE_CURVE ( 'NONE', #189, #193, #227, .T. ) ;
#9 = CC_DESIGN_PERSON_AND_ORGANIZATION_ASSIGNMENT ( #138, #152, ( #23 ) ) ;
#10 = EDGE_CURVE ( 'NONE', #187, #197, #220, .T. ) ;
#11 = EDGE_CURVE ( 'NONE', #197, #179, #67, .T. ) ;
#12 = EDGE_CURVE ( 'NONE', #198, #179, #209, .T. ) ;
#13 = EDGE_CURVE ( 'NONE', #186, #189, #76, .T. ) ;
#14 = CC_DESIGN_PERSON_AND_ORGANIZATION_ASSIGNMENT ( #168, #140, ( #5 ) ) ;
#15 = EDGE_CURVE ( 'NONE', #187, #198, #81, .T. ) ;
#16 = CC_DESIGN_DATE_AND_TIME_ASSIGNMENT ( #139, #156, ( #23 ) ) ;
#17 = APPROVAL ( #151, 'UNSPECIFIED' ) ;
#18 = EDGE_CURVE ( 'NONE', #197, #187, #214, .T. ) ;
#19 = APPROVAL ( #169, 'UNSPECIFIED' ) ;
#20 = CC_DESIGN_PERSON_AND_ORGANIZATION_ASSIGNMENT ( #153, #155, ( #237 ) ) ;
#21 = EDGE_CURVE ( 'NONE', #188, #193, #50, .T. ) ;
#22 = EDGE_CURVE ( 'NONE', #186, #188, #228, .T. ) ;
#23 = PRODUCT_DEFINITION ( 'UNKNOWN', '', #237, #202 ) ;
#24 = ADVANCED_FACE ( 'NONE', ( #127, #37 ), #128, .T. ) ;
#25 = EDGE_CURVE ( 'NONE', #188, #186, #223, .T. ) ;
#26 = CC_DESIGN_PERSON_AND_ORGANIZATION_ASSIGNMENT ( #131, #167, ( #237 ) ) ;
#27 = ADVANCED_FACE ( 'NONE', ( #104 ), #114, .F. ) ;
#28 = ADVANCED_FACE ( 'NONE', ( #99 ), #83, .T. ) ;
#29 = ADVANCED_FACE ( 'NONE', ( #123, #125 ), #87, .F. ) ;
#30 = ADVANCED_FACE ( 'NONE', ( #89 ), #90, .F. ) ;
#31 = EDGE_CURVE ( 'NONE', #193, #189, #213, .T. ) ;
#32 = CC_DESIGN_PERSON_AND_ORGANIZATION_ASSIGNMENT ( #135, #165, ( #243 ) ) ;
#33 = CC_DESIGN_DATE_AND_TIME_ASSIGNMENT ( #136, #159, ( #243 ) ) ;
#34 = APPROVAL ( #142, 'UNSPECIFIED' ) ;
#35 = PRODUCT_RELATED_PRODUCT_CATEGORY ( 'detail', '', ( #5 ) ) ;
#36 = DIRECTION ( 'NONE',  ( -0.0000000000000000000, -1.000000000000000000, -0.0000000000000000000 ) ) ;
#37 = FACE_BOUND ( 'NONE', #49, .T. ) ;
#38 = CARTESIAN_POINT ( 'NONE',  ( 0.0000000000000000000, 2.000000000000000000, 0.0000000000000000000 ) ) ;
#39 = DIRECTION ( 'NONE',  ( -0.0000000000000000000, -1.000000000000000000, -0.0000000000000000000 ) ) ;
#40 = DIRECTION ( 'NONE',  ( 0.0000000000000000000, 0.0000000000000000000, 1.000000000000000000 ) ) ;
#41 = CARTESIAN_POINT ( 'NONE',  ( 0.0000000000000000000, 2.000000000000000000, -4.500000000000000000 ) ) ;
#42 = ORIENTED_EDGE ( 'NONE', *, *, #22, .F. ) ;
#43 = CYLINDRICAL_SURFACE ( 'NONE', #207, 16.00000000000000000 ) ;
#44 = EDGE_LOOP ( 'NONE', ( #42, #190, #58, #54 ) ) ;
#45 = DIRECTION ( 'NONE',  ( 0.0000000000000000000, 0.0000000000000000000, 1.000000000000000000 ) ) ;
#46 = DIRECTION ( 'NONE',  ( 0.0000000000000000000, 1.000000000000000000, 0.0000000000000000000 ) ) ;
#47 = DIRECTION ( 'NONE',  ( 0.0000000000000000000, 0.0000000000000000000, -1.000000000000000000 ) ) ;
#48 = CARTESIAN_POINT ( 'NONE',  ( 5.510910596163088600E-016, 2.000000000000000000, 4.500000000000000000 ) ) ;
#49 = EDGE_LOOP ( 'NONE', ( #52, #72 ) ) ;
#50 = LINE ( 'NONE', #62, #224 ) ;
#51 = ORIENTED_EDGE ( 'NONE', *, *, #11, .T. ) ;
#52 = ORIENTED_EDGE ( 'NONE', *, *, #10, .F. ) ;
#53 = DIRECTION ( 'NONE',  ( -0.0000000000000000000, -1.000000000000000000, -0.0000000000000000000 ) ) ;
#54 = ORIENTED_EDGE ( 'NONE', *, *, #21, .F. ) ;
#55 = CARTESIAN_POINT ( 'NONE',  ( 0.0000000000000000000, 0.0000000000000000000, 0.0000000000000000000 ) ) ;
#56 = EDGE_LOOP ( 'NONE', ( #195, #192, #199, #184 ) ) ;
#57 = CARTESIAN_POINT ( 'NONE',  ( 0.0000000000000000000, 2.000000000000000000, 0.0000000000000000000 ) ) ;
#58 = ORIENTED_EDGE ( 'NONE', *, *, #8, .T. ) ;
#59 = EDGE_LOOP ( 'NONE', ( #78, #196 ) ) ;
#60 = EDGE_LOOP ( 'NONE', ( #178, #194 ) ) ;
#61 = CARTESIAN_POINT ( 'NONE',  ( 0.0000000000000000000, 0.0000000000000000000, 0.0000000000000000000 ) ) ;
#62 = CARTESIAN_POINT ( 'NONE',  ( 0.0000000000000000000, 2.000000000000000000, -16.00000000000000000 ) ) ;
#63 = EDGE_LOOP ( 'NONE', ( #182, #185 ) ) ;
#64 = DIRECTION ( 'NONE',  ( 0.0000000000000000000, 1.000000000000000000, 0.0000000000000000000 ) ) ;
#65 = DIRECTION ( 'NONE',  ( 0.0000000000000000000, 1.000000000000000000, 0.0000000000000000000 ) ) ;
#66 = DIRECTION ( 'NONE',  ( 0.0000000000000000000, 0.0000000000000000000, 1.000000000000000000 ) ) ;
#67 = LINE ( 'NONE', #48, #216 ) ;
#68 = DIRECTION ( 'NONE',  ( 0.0000000000000000000, 1.000000000000000000, 0.0000000000000000000 ) ) ;
#69 = DIRECTION ( 'NONE',  ( 0.0000000000000000000, 0.0000000000000000000, 1.000000000000000000 ) ) ;
#70 = DIRECTION ( 'NONE',  ( 0.0000000000000000000, 0.0000000000000000000, 1.000000000000000000 ) ) ;
#71 = CARTESIAN_POINT ( 'NONE',  ( 0.0000000000000000000, 2.000000000000000000, 0.0000000000000000000 ) ) ;
#72 = ORIENTED_EDGE ( 'NONE', *, *, #18, .F. ) ;
#73 = CARTESIAN_POINT ( 'NONE',  ( 0.0000000000000000000, 0.0000000000000000000, 0.0000000000000000000 ) ) ;
#74 = EDGE_LOOP ( 'NONE', ( #200, #201, #177, #191 ) ) ;
#75 = EDGE_LOOP ( 'NONE', ( #183, #51, #181, #180 ) ) ;
#76 = LINE ( 'NONE', #82, #221 ) ;
#77 = DIRECTION ( 'NONE',  ( -0.0000000000000000000, -1.000000000000000000, -0.0000000000000000000 ) ) ;
#78 = ORIENTED_EDGE ( 'NONE', *, *, #25, .T. ) ;
#79 = DIRECTION ( 'NONE',  ( 0.0000000000000000000, 1.000000000000000000, 0.0000000000000000000 ) ) ;
#80 = FACE_OUTER_BOUND ( 'NONE', #44, .T. ) ;
#81 = LINE ( 'NONE', #41, #218 ) ;
#82 = CARTESIAN_POINT ( 'NONE',  ( 1.959434878635765100E-015, 2.000000000000000000, 16.00000000000000000 ) ) ;
#83 = CYLINDRICAL_SURFACE ( 'NONE', #231, 16.00000000000000000 ) ;
#84 = DIRECTION ( 'NONE',  ( -0.0000000000000000000, -1.000000000000000000, -0.0000000000000000000 ) ) ;
#85 = CARTESIAN_POINT ( 'NONE',  ( 0.0000000000000000000, 2.000000000000000000, 0.0000000000000000000 ) ) ;
#86 = DIRECTION ( 'NONE',  ( 0.0000000000000000000, 1.000000000000000000, 0.0000000000000000000 ) ) ;
#87 = PLANE ( 'NONE',  #233 ) ;
#88 = DIRECTION ( 'NONE',  ( 0.0000000000000000000, -0.0000000000000000000, 1.000000000000000000 ) ) ;
#89 = FACE_OUTER_BOUND ( 'NONE', #74, .T. ) ;
#90 = CYLINDRICAL_SURFACE ( 'NONE', #222, 4.500000000000000000 ) ;
#91 = CARTESIAN_POINT ( 'NONE',  ( 0.0000000000000000000, 2.000000000000000000, 0.0000000000000000000 ) ) ;
#92 = DIRECTION ( 'NONE',  ( 0.0000000000000000000, 1.000000000000000000, 0.0000000000000000000 ) ) ;
#93 = CARTESIAN_POINT ( 'NONE',  ( 0.0000000000000000000, 2.000000000000000000, 0.0000000000000000000 ) ) ;
#94 = CARTESIAN_POINT ( 'NONE',  ( 0.0000000000000000000, 2.000000000000000000, 0.0000000000000000000 ) ) ;
#95 = DIRECTION ( 'NONE',  ( 0.0000000000000000000, 0.0000000000000000000, -1.000000000000000000 ) ) ;
#96 = DIRECTION ( 'NONE',  ( 0.0000000000000000000, 1.000000000000000000, 0.0000000000000000000 ) ) ;
#97 = CARTESIAN_POINT ( 'NONE',  ( 1.959434878635765100E-015, 2.000000000000000000, 16.00000000000000000 ) ) ;
#98 = DIRECTION ( 'NONE',  ( -0.0000000000000000000, -1.000000000000000000, -0.0000000000000000000 ) ) ;
#99 = FACE_OUTER_BOUND ( 'NONE', #56, .T. ) ;
#100 = DIRECTION ( 'NONE',  ( 0.0000000000000000000, 0.0000000000000000000, 1.000000000000000000 ) ) ;
#101 = CARTESIAN_POINT ( 'NONE',  ( 0.0000000000000000000, 0.0000000000000000000, -4.500000000000000000 ) ) ;
#102 = DIRECTION ( 'NONE',  ( 0.0000000000000000000, 0.0000000000000000000, -1.000000000000000000 ) ) ;
#103 = CARTESIAN_POINT ( 'NONE',  ( 0.0000000000000000000, 0.0000000000000000000, 0.0000000000000000000 ) ) ;
#104 = FACE_OUTER_BOUND ( 'NONE', #75, .T. ) ;
#105 = CARTESIAN_POINT ( 'NONE',  ( 0.0000000000000000000, 0.0000000000000000000, -16.00000000000000000 ) ) ;
#106 = CARTESIAN_POINT ( 'NONE',  ( 5.510910596163088600E-016, 0.0000000000000000000, 4.500000000000000000 ) ) ;
#107 = DIRECTION ( 'NONE',  ( 0.0000000000000000000, 0.0000000000000000000, 1.000000000000000000 ) ) ;
#108 = CARTESIAN_POINT ( 'NONE',  ( 0.0000000000000000000, 0.0000000000000000000, 0.0000000000000000000 ) ) ;
#109 = DIRECTION ( 'NONE',  ( -0.0000000000000000000, -1.000000000000000000, -0.0000000000000000000 ) ) ;
#110 = CARTESIAN_POINT ( 'NONE',  ( 0.0000000000000000000, 2.000000000000000000, -16.00000000000000000 ) ) ;
#111 = CARTESIAN_POINT ( 'NONE',  ( 1.959434878635765100E-015, 0.0000000000000000000, 16.00000000000000000 ) ) ;
#112 = CARTESIAN_POINT ( 'NONE',  ( 5.510910596163088600E-016, 2.000000000000000000, 4.500000000000000000 ) ) ;
#113 = DIRECTION ( 'NONE',  ( 0.0000000000000000000, -0.0000000000000000000, 1.000000000000000000 ) ) ;
#114 = CYLINDRICAL_SURFACE ( 'NONE', #229, 4.500000000000000000 ) ;
#115 = CARTESIAN_POINT ( 'NONE',  ( 0.0000000000000000000, 0.0000000000000000000, 0.0000000000000000000 ) ) ;
#116 = DIRECTION ( 'NONE',  ( 0.0000000000000000000, 0.0000000000000000000, -1.000000000000000000 ) ) ;
#117 = DIRECTION ( 'NONE',  ( -0.0000000000000000000, -1.000000000000000000, -0.0000000000000000000 ) ) ;
#118 = CARTESIAN_POINT ( 'NONE',  ( 0.0000000000000000000, 2.000000000000000000, 0.0000000000000000000 ) ) ;
#119 = DIRECTION ( 'NONE',  ( 0.0000000000000000000, 1.000000000000000000, 0.0000000000000000000 ) ) ;
#120 = CARTESIAN_POINT ( 'NONE',  ( 0.0000000000000000000, 2.000000000000000000, -4.500000000000000000 ) ) ;
#121 = CARTESIAN_POINT ( 'NONE',  ( 0.0000000000000000000, 2.000000000000000000, 0.0000000000000000000 ) ) ;
#122 =( LENGTH_UNIT ( ) NAMED_UNIT ( * ) SI_UNIT ( .MILLI., .METRE. ) );
#123 = FACE_OUTER_BOUND ( 'NONE', #60, .T. ) ;
#124 = DIRECTION ( 'NONE',  ( 0.0000000000000000000, 1.000000000000000000, 0.0000000000000000000 ) ) ;
#125 = FACE_BOUND ( 'NONE', #63, .T. ) ;
#126 = DIRECTION ( 'NONE',  ( 0.0000000000000000000, 0.0000000000000000000, 1.000000000000000000 ) ) ;
#127 = FACE_OUTER_BOUND ( 'NONE', #59, .T. ) ;
#128 = PLANE ( 'NONE',  #212 ) ;
#129 = DIRECTION ( 'NONE',  ( 0.0000000000000000000, 0.0000000000000000000, 1.000000000000000000 ) ) ;
#130 = APPLICATION_PROTOCOL_DEFINITION ( 'international standard', 'config_control_design', 1994, #2 ) ;
#131 = PERSON_AND_ORGANIZATION ( #4, #234 ) ;
#132 = DATE_AND_TIME ( #149, #240 ) ;
#133 = COORDINATED_UNIVERSAL_TIME_OFFSET ( 8, 0, .AHEAD. ) ;
#134 = CALENDAR_DATE ( 2017, 14, 11 ) ;
#135 = PERSON_AND_ORGANIZATION ( #4, #234 ) ;
#136 = DATE_AND_TIME ( #134, #244 ) ;
#137 = APPROVAL_DATE_TIME ( #157, #34 ) ;
#138 = PERSON_AND_ORGANIZATION ( #4, #234 ) ;
#139 = DATE_AND_TIME ( #148, #241 ) ;
#140 = PERSON_AND_ORGANIZATION_ROLE ( 'design_owner' ) ;
#141 = APPROVAL_DATE_TIME ( #160, #17 ) ;
#142 = APPROVAL_STATUS ( 'not_yet_approved' ) ;
#143 = CALENDAR_DATE ( 2017, 14, 11 ) ;
#144 = SECURITY_CLASSIFICATION_LEVEL ( 'unclassified' ) ;
#145 = PERSON_AND_ORGANIZATION ( #4, #234 ) ;
#146 = MECHANICAL_CONTEXT ( 'NONE', #2, 'mechanical' ) ;
#147 = COORDINATED_UNIVERSAL_TIME_OFFSET ( 8, 0, .AHEAD. ) ;
#148 = CALENDAR_DATE ( 2017, 14, 11 ) ;
#149 = CALENDAR_DATE ( 2017, 14, 11 ) ;
#150 = APPLICATION_PROTOCOL_DEFINITION ( 'international standard', 'config_control_design', 1994, #1 ) ;
#151 = APPROVAL_STATUS ( 'not_yet_approved' ) ;
#152 = PERSON_AND_ORGANIZATION_ROLE ( 'creator' ) ;
#153 = PERSON_AND_ORGANIZATION ( #4, #234 ) ;
#154 = APPROVAL_ROLE ( '' ) ;
#155 = PERSON_AND_ORGANIZATION_ROLE ( 'creator' ) ;
#156 = DATE_TIME_ROLE ( 'creation_date' ) ;
#157 = DATE_AND_TIME ( #143, #246 ) ;
#158 = DIRECTION ( 'NONE',  ( 1.000000000000000000, 0.0000000000000000000, 0.0000000000000000000 ) ) ;
#159 = DATE_TIME_ROLE ( 'classification_date' ) ;
#160 = DATE_AND_TIME ( #166, #238 ) ;
#161 = COORDINATED_UNIVERSAL_TIME_OFFSET ( 8, 0, .AHEAD. ) ;
#162 = APPROVAL_DATE_TIME ( #132, #19 ) ;
#163 = COORDINATED_UNIVERSAL_TIME_OFFSET ( 8, 0, .AHEAD. ) ;
#164 = COORDINATED_UNIVERSAL_TIME_OFFSET ( 8, 0, .AHEAD. ) ;
#165 = PERSON_AND_ORGANIZATION_ROLE ( 'classification_officer' ) ;
#166 = CALENDAR_DATE ( 2017, 14, 11 ) ;
#167 = PERSON_AND_ORGANIZATION_ROLE ( 'design_supplier' ) ;
#168 = PERSON_AND_ORGANIZATION ( #4, #234 ) ;
#169 = APPROVAL_STATUS ( 'not_yet_approved' ) ;
#170 = APPROVAL_ROLE ( '' ) ;
#171 = PERSON_AND_ORGANIZATION ( #4, #234 ) ;
#172 = PERSON_AND_ORGANIZATION ( #4, #234 ) ;
#173 =( NAMED_UNIT ( * ) SI_UNIT ( $, .STERADIAN. ) SOLID_ANGLE_UNIT ( ) );
#174 = SHAPE_DEFINITION_REPRESENTATION ( #205, #3 ) ;
#175 = APPROVAL_ROLE ( '' ) ;
#176 =( NAMED_UNIT ( * ) PLANE_ANGLE_UNIT ( ) SI_UNIT ( $, .RADIAN. ) );
#177 = ORIENTED_EDGE ( 'NONE', *, *, #15, .T. ) ;
#178 = ORIENTED_EDGE ( 'NONE', *, *, #31, .F. ) ;
#179 = VERTEX_POINT ( 'NONE', #106 ) ;
#180 = ORIENTED_EDGE ( 'NONE', *, *, #15, .F. ) ;
#181 = ORIENTED_EDGE ( 'NONE', *, *, #12, .F. ) ;
#182 = ORIENTED_EDGE ( 'NONE', *, *, #12, .T. ) ;
#183 = ORIENTED_EDGE ( 'NONE', *, *, #10, .T. ) ;
#184 = ORIENTED_EDGE ( 'NONE', *, *, #31, .T. ) ;
#185 = ORIENTED_EDGE ( 'NONE', *, *, #7, .T. ) ;
#186 = VERTEX_POINT ( 'NONE', #97 ) ;
#187 = VERTEX_POINT ( 'NONE', #120 ) ;
#188 = VERTEX_POINT ( 'NONE', #110 ) ;
#189 = VERTEX_POINT ( 'NONE', #111 ) ;
#190 = ORIENTED_EDGE ( 'NONE', *, *, #13, .T. ) ;
#191 = ORIENTED_EDGE ( 'NONE', *, *, #7, .F. ) ;
#192 = ORIENTED_EDGE ( 'NONE', *, *, #25, .F. ) ;
#193 = VERTEX_POINT ( 'NONE', #105 ) ;
#194 = ORIENTED_EDGE ( 'NONE', *, *, #8, .F. ) ;
#195 = ORIENTED_EDGE ( 'NONE', *, *, #13, .F. ) ;
#196 = ORIENTED_EDGE ( 'NONE', *, *, #22, .T. ) ;
#197 = VERTEX_POINT ( 'NONE', #112 ) ;
#198 = VERTEX_POINT ( 'NONE', #101 ) ;
#199 = ORIENTED_EDGE ( 'NONE', *, *, #21, .T. ) ;
#200 = ORIENTED_EDGE ( 'NONE', *, *, #11, .F. ) ;
#201 = ORIENTED_EDGE ( 'NONE', *, *, #18, .T. ) ;
#202 = DESIGN_CONTEXT ( 'detailed design', #1, 'design' ) ;
#203 = UNCERTAINTY_MEASURE_WITH_UNIT (LENGTH_MEASURE( 1.000000000000000100E-005 ), #122, 'distance_accuracy_value', 'NONE');
#204 = MANIFOLD_SOLID_BREP ( 'Boss-Extrude1', #215 ) ;
#205 = PRODUCT_DEFINITION_SHAPE ( 'NONE', 'NONE',  #23 ) ;
#206 = AXIS2_PLACEMENT_3D ( 'NONE', #121, #92, #126 ) ;
#207 = AXIS2_PLACEMENT_3D ( 'NONE', #57, #53, #47 ) ;
#208 = CIRCLE ( 'NONE', #217, 4.500000000000000000 ) ;
#209 = CIRCLE ( 'NONE', #219, 4.500000000000000000 ) ;
#210 = AXIS2_PLACEMENT_3D ( 'NONE', #71, #64, #70 ) ;
#211 = AXIS2_PLACEMENT_3D ( 'NONE', #38, #46, #40 ) ;
#212 = AXIS2_PLACEMENT_3D ( 'NONE', #91, #119, #113 ) ;
#213 = CIRCLE ( 'NONE', #236, 16.00000000000000000 ) ;
#214 = CIRCLE ( 'NONE', #211, 4.500000000000000000 ) ;
#215 = CLOSED_SHELL ( 'NONE', ( #27, #6, #24, #29, #28, #30 ) ) ;
#216 = VECTOR ( 'NONE', #77, 1000.000000000000000 ) ;
#217 = AXIS2_PLACEMENT_3D ( 'NONE', #73, #65, #45 ) ;
#218 = VECTOR ( 'NONE', #36, 1000.000000000000000 ) ;
#219 = AXIS2_PLACEMENT_3D ( 'NONE', #55, #68, #69 ) ;
#220 = CIRCLE ( 'NONE', #210, 4.500000000000000000 ) ;
#221 = VECTOR ( 'NONE', #39, 1000.000000000000000 ) ;
#222 = AXIS2_PLACEMENT_3D ( 'NONE', #94, #117, #95 ) ;
#223 = CIRCLE ( 'NONE', #206, 16.00000000000000000 ) ;
#224 = VECTOR ( 'NONE', #98, 1000.000000000000000 ) ;
#225 = AXIS2_PLACEMENT_3D ( 'NONE', #61, #79, #66 ) ;
#226 = AXIS2_PLACEMENT_3D ( 'NONE', #93, #124, #107 ) ;
#227 = CIRCLE ( 'NONE', #225, 16.00000000000000000 ) ;
#228 = CIRCLE ( 'NONE', #226, 16.00000000000000000 ) ;
#229 = AXIS2_PLACEMENT_3D ( 'NONE', #118, #84, #116 ) ;
#230 = AXIS2_PLACEMENT_3D ( 'NONE', #115, #129, #158 ) ;
#231 = AXIS2_PLACEMENT_3D ( 'NONE', #85, #109, #102 ) ;
#232 =( GEOMETRIC_REPRESENTATION_CONTEXT ( 3 ) GLOBAL_UNCERTAINTY_ASSIGNED_CONTEXT ( ( #203 ) ) GLOBAL_UNIT_ASSIGNED_CONTEXT ( ( #122, #176, #173 ) ) REPRESENTATION_CONTEXT ( 'NONE', 'WORKASPACE' ) );
#233 = AXIS2_PLACEMENT_3D ( 'NONE', #108, #86, #88 ) ;
#234 = ORGANIZATION ( 'UNSPECIFIED', 'UNSPECIFIED', '' ) ;
#235 = APPROVAL_PERSON_ORGANIZATION ( #145, #19, #170 ) ;
#236 = AXIS2_PLACEMENT_3D ( 'NONE', #103, #96, #100 ) ;
#237 = PRODUCT_DEFINITION_FORMATION_WITH_SPECIFIED_SOURCE ( 'ANY', '', #5, .NOT_KNOWN. ) ;
#238 = LOCAL_TIME ( 10, 30, 36.00000000000000000, #164 ) ;
#239 = CC_DESIGN_APPROVAL ( #19, ( #23 ) ) ;
#240 = LOCAL_TIME ( 10, 30, 36.00000000000000000, #161 ) ;
#241 = LOCAL_TIME ( 10, 30, 36.00000000000000000, #163 ) ;
#242 = CC_DESIGN_APPROVAL ( #17, ( #237 ) ) ;
#243 = SECURITY_CLASSIFICATION ( '', '', #144 ) ;
#244 = LOCAL_TIME ( 10, 30, 36.00000000000000000, #147 ) ;
#245 = APPROVAL_PERSON_ORGANIZATION ( #171, #17, #175 ) ;
#246 = LOCAL_TIME ( 10, 30, 36.00000000000000000, #133 ) ;
#247 = CC_DESIGN_SECURITY_CLASSIFICATION ( #243, ( #237 ) ) ;
#248 = CC_DESIGN_APPROVAL ( #34, ( #243 ) ) ;
#249 = APPROVAL_PERSON_ORGANIZATION ( #172, #34, #154 ) ;
ENDSEC;
END-ISO-10303-21;
